Wonders - That Thing You Do Chords & Tabs

 

That Thing You Do Chords & Tabs

Wonders Chords & Tabs

Version: 2 Type: Tab 0 ratings
1 star 2 stars 3 stars 4 stars 5 stars
comments

That Thing You Do Tab

   
~~~~~~~~~~~~~~~~~~~~~~~~~~~~~~~~~~~~~~~~~~~~~~~~~~~~~~~~~~~~~~~~~~~~~~~~~~~~~~~~~~~~~~~~~~~~~~~~

                          The Wonders - That Thing You Do [Incomplete]

~~~~~~~~~~~~~~~~~~~~~~~~~~~~~~~~~~~~~~~~~~~~~~~~~~~~~~~~~~~~~~~~~~~~~~~~~~~~~~~~~~~~~~~~~~~~~~~~

Throughout: E, A, B, C#m, F#, F#m, D, Am, C, C(Power Chord)

     (E)        (A [Power Chord]) (B [Power Chord])     (C#m)            (F#)

e| ---0----------------x----------------x-----------------4----------------2---------------
B| ---0----------------x----------------x-----------------5----------------2---------------
G| ---1----------------2----------------4-----------------6----------------3---------------
D| ---3----------------2----------------4-----------------6----------------4---------------
A| ---3----------------0----------------2-----------------4----------------4---------------
E| ---0----------------x----------------x-----------------x----------------2---------------

    (F#m)             (D)              (Am)              (C)       (C [Power Chord])

e| ---2----------------2----------------0-----------------3----------------x---------------
B| ---2----------------3----------------1-----------------3----------------x---------------
G| ---0----------------2----------------3-----------------0----------------5---------------
D| ---4----------------0----------------3-----------------2----------------5---------------
A| ---4----------------x----------------0-----------------3----------------3---------------
E| ---2----------------x----------------x-----------------x----------------x---------------


Note: "X" denotes that the string is not played.

Intro:

e| -4----2----0---------0------------------------------------------------------------------
B| -0----0----0----0----1------------------------------------------------------------------
G| ----------------1-----------------------------------------------------------------------
D| ----------------------------------------------------------------------------------------
A| ----------------------------------------------------------------------------------------
E| ----------------------------------------------------------------------------------------

------------------------------------------------------------------------------------------------

Verse:

(E)   (A)        (B)      (E)
You, doin' that thing you do...

(A)          (B)  (C#m)          (F#)
Breakin' my heart into a million pieces,

(F#m)           (B)
Like you always doooooo.

------------------------------------------------------------------------------------------------

Verse 2:
   
    (E)   (A)  (B)        (E)
And you, don't mean to be cruel,

     (A)   (B) (C#m)          (F#)
You never even knew about the heartache,

      (D)            (B)
That I've been goin' throuuuugh.

------------------------------------------------------------------------------------------------

"Chorus:"

       (C#m)          (F#)
Well I try and try to forget you girl,

         (E)             (A)  (Am)
But it's just so hard to dooooooo.

(E)           (Am)               (E)           (B) x7
Every time you do that thing you doooo.

------------------------------------------------------------------------------------------------

Verse 3:

(E)     (A)     (B)       (E)
I, know all the games you play,
[ Tab from: http://www.guitartabs.cc/tabs/w/wonders/that_thing_you_do_tab_ver_2.html ]
        (A)   (B)   (C#m)           (F#)
And I'm gonna find a way to let you know that,

(F#m)              (B)
You'll be mine somedayyyyyy.

------------------------------------------------------------------------------------------------

Verse 4:

      (E)          (A)   (B)       (E)
Cause we, could be happy can't you seeeee,

         (A)  (B)   (C#m)          (F#)
If you'd only let me be the one to hold you,
 
    (D)                (B)
And keep you here with meeeee.

------------------------------------------------------------------------------------------------

"Chrous:"

       (C#m)           (F#)
Cause I try and try to forget you girl,

         (E)             (A)  (Am)
But it's just so hard to dooooooo.

(E)           (Am)               (E)           (E) x7
Every time you do that thing you dooooo.

------------------------------------------------------------------------------------------------

Verse 5:

(A) [Gently pick at first two strings, or all three.]
I don't ask alot girl, (I don't ask alot girl.)

      (C#m) [Gently pick at first few strings.]
But I know one thing's for sure...(know one things for sure)

         (F#) [Gently pick at first few strings.]
It's the love I haven't got girl,
       
      (B)                (C)         (B) x7
And I just can't take it anymorrrre. WAAHHHHHH!

^*^^*^^*^^*^^*^^*^^*^^*^^*^^*^^*^^*^^*^^*^^*^^*^^*^^*^^*^^*^^*^^*^^*^^*^^*^^*^^*^^*^^*^^*^^*^^*^

Interlude/Breakdown/Solo:

Rhythm Guitar Plays with Lead:

Same as first verse; 

(E) -------> (A) -------> (B)
(E) -------> (A) -------> (B) -------> (C#m) -------> (F#) -------> (F#m) -------> (B)

^*^^*^^*^^*^^*^^*^^*^^*^^*^^*^^*^^*^^*^^*^^*^^*^^*^^*^^*^^*^^*^^*^^*^^*^^*^^*^^*^^*^^*^^*^^*^^*^

Verse 6:

     (E)           (A)   (B)       (E)
Cause we, could be happy can't you see,

         (A)  (B)   (C#m)          (F#)
If you'd only let me be the one to hold you,

    (D)                (B)
And keep you here with meeeeee.


------------------------------------------------------------------------------------------------

"Chorus:"

         (C#m)               (F#)
Cause it hurts me so just to see you go,

 (E)                (A)   (Am)
Around with someone newwwwwww.

      (E)                 (Am)
And if I know you, you're doin' that thing.
 
(E)            (Am)
Every day just doin' that thing.

(E)               (A)                  (Am)  (A)
I can't take you, doin' that thing you dooooooo.

------------------------------------------------------------------------------------------------

End:                        (Unknown chord in here, version of E.)

e| -----------------------------------------------------------------------------------------
B| -----------------------------------------------------------------------------------------
G| -----------------------------------------------------------------------------------------
D| -----------------------------------------------------------------------------------------
A| ---------2-------------------------------------------------------------------------------
E| -2---4-------0---------------------------------------------------------------------------

------------------------------------------------------------------------------------------------

-+- Tabbed by: Mason Nichols -+-

-  mason@nanionline.every1.net  -
Comments