Wonders - All My Only Dreams Chords & Tabs

 

All My Only Dreams Chords & Tabs

Wonders Chords & Tabs

Version: 2 Type: Tab 0 ratings
1 star 2 stars 3 stars 4 stars 5 stars
comments

All My Only Dreams Tab

Tabber:Fitrio



Intro Part

e|-----------------------3---5/7-7-5-----------------------------1-----------|
B|----3-3-3-7-5-3------3---3------------3-3-3-7-5-3--3-3-3/5-2-3-------------|
G|-------------------4-------------------------------------------------------|
D|-----------------5---------------------------------------------------------|
A|---------------------------------------------------------------------------|
E|---------------------------------------------------------------------------|
 

    After he sings,"Every night i pray..." Straight away do this.

e|----------3---5/7-7-5----2---2-2-0-----------3-----------------------------|
B|--------3---3--------------3-------3-------3---3--------2--------2-2/3-----|
G|------4----------------------------------4------------2--------2-----------|
D|----5----------------------------------5------------2------2-3-------------|
A|---------------------------------------------------------------------------|
E|---------------------------------------------------------------------------|
        
 Chorus

e|----------2--------3-------1-----------------------------------------------|
B|--------3--------4-------2-------------------------------------------------|
G|------2--------3-------1---------------------------------------------------|     Repeat 3x
D|----0--------0-------0-----------------------------------------------------|        
A|---------------------------------------------------------------------------|
E|---------------------------------------------------------------------------|

 Solo
[ Tab from: http://www.guitartabs.cc/tabs/w/wonders/all_my_only_dreams_tab_ver_2.html ]
e|---2-2-2-2-2-0-------------------------------------------------------------|
B|---------------3-3-3-3-3/5-2-0---------------------------------------------|
G|-------------------------------3-------------------------------------------|
D|---------------------------------------------------------------------------|
A|---------------------------------------------------------------------------|
E|---------------------------------------------------------------------------|

e|---------------------------------------------------------------------------|
B|---------------------------------------------------------------------------|
G|-------------------------------0-2-4-5-6-----------------------------------|
D|---4-4-4-4-2-0-0-0-0-2-0---2-4---------------------------------------------|
A|-------------------------4-------------------------------------------------|
E|---------------------------------------------------------------------------|
 
   Repeat Chorus
   
   Bridge

e|---2-3-2-0-2-0-------------------------------------------------------------|
B|---------------3-----------------------------------------------------------|  
G|-----------------2-3-------------------------------------------------------|    Repeat 2x 
D|---------------------------------------------------------------------------|
A|---------------------------------------------------------------------------|
E|---------------------------------------------------------------------------|

   Repeat the part after the intro and finally this

e|-----------------0-2-3-0-2-3-3/5-------------------------------------------|
B|----3-3-3-7-5-3------------------------------------------------------------|
G|---------------------------------------------------------------------------|
D|---------------------------------------------------------------------------|
A|---------------------------------------------------------------------------|
E|---------------------------------------------------------------------------|
Comments