Wonders - All My Only Dreams Chords & Tabs

 

All My Only Dreams Chords & Tabs

Wonders Chords & Tabs

Version: 1 Type: Tab 0 ratings
1 star 2 stars 3 stars 4 stars 5 stars
comments

All My Only Dreams Tab

   
All my only dreams-The Wonders

Intro:

D Bm G Aadd9 A

D Bm G A A+

Verse 1:
D       Bm        G              Aadd9 A
Every night I pray I'll have you here someday
D            Bm                G         A A+
I count the stars tonight and hope with all my mind
F#m           Bm             G              E
That when I close my eyes, you'll be right by my side

Chorus:
D          D+             Bm
If I could only have one wish
D7*                             G
You'd be the girl who's lips I kiss
A            D       Bb  A
All my only dreams

Solo:
E-2-2-2-2p0--------------------------------------------|
B-----------3--3-3/5-2p0-------------------------------|
G------------------------2-----------------------------|
D------------------------------------------------------|
A------------------------------------------------------|
E------------------------------------------------------|

E------------------------------------------------------|
B------------------------------------------------------|
G----------------------------0-2-4-5-6-----------------|
D-4-4-4-2-0-0-0-0h2p0--0-2-4---------------------------|
A--------------------4---------------------------------|
E------------------------------------------------------|

F#m           Bm             G              E
And when I close my eyes, you'll be right by my side
[ Tab from: http://www.guitartabs.cc/tabs/w/wonders/all_my_only_dreams_tab.html ]
Chorus:
D          D+             Bm
If I could have just one request
D7*                    G
Stay with me girl I confess
A             D
All my only dreams

E-2-3-2-0-2-0-------------------------------------------------|
B-3-----------3-----------------------------------------------|
G-2-------------2-3-------------------------------------------|
D-------------------------------------------------------------|
A-------------------------------------------------------------|
E-------------------------------------------------------------|

Gm                    D       E                A        A+
Every waking hour it seems, I only have you in my dreams
D           Bm        G              Aadd9 A
So every night I pray I'll have you here someday
D            Bm                G         A A+
I count the stars tonight and hope with all my mind
F#m           Bm             G              E
That when I close my eyes, you'll be right by my side

D          D+             Bm
If I could have just one request
D7*                    G
Stay with me girl I confess
A             D
All my only dreams

Outro:
Bm Gm A D


D     - 200232
D+    - 200332
Bm    - xx4432
D7*   - xx4532
A     - 002220
A+    - 002221
Aadd9 - xx7657
A     - xx7655

Any corrections, suggestions or comments welcome at
dreamacousticplanet@yahoo.com
Comments