Wondermints - Time Chords & Tabs

 

Time Chords & Tabs

Wondermints Chords & Tabs

Version: 2 Type: Tab 0 ratings
1 star 2 stars 3 stars 4 stars 5 stars
comments

Time Tab

   
--------------------------------------------------------------
  WONDERMINTS - TIME (Sahanaja/Kassan) From WONDERMINTS album. 
                Released on 1996.
--------------------------------------------------------------
  Tabbed by:PJVillanueva



Time, I see you wasting all this time,
But it's not mine. It's your dime.

Time, I see you running on the line
And it's not right to fear the light.

And all the things you said, you understood well
The past is gone
And there's no welcome in your eyes.


Time, I feel you wasting all this time
And it's a crime. It's so sublime.

And all the things we did, you understood well.
We can't deny. There's no hiding this disguise.

Oooh, gonna let you down
Oooh, gonna let you down this time.
And I'll be fine.

Oooh, let you down.
Oooh, gonna let you down this time
And never pay you mind.

Time, I think you're running out of signs
To join with mine. It's so unkind.

And all the things we said, you understood well.
We can't deny and there's no welcome in your eyes.


                                     
  E
e|4------ ------- ------- -------|------- ------- ------- -------|
B|5------------------------------|-------------------------------|
G|4------------------------------|-------------------------------|
D|2------------------------------|-------------------------------|
A|2------------------------------|-------------------------------|
E|0------------------------------|-------------------------------|




e|------- ------- ------- -------|------- ------- ------- -------|
B|-------------------------------|-------------------------------|
G|-------------------------------|-------------------------------|
D|-------------------------------|-------------------------------|
A|-------------------------------|-------------------------------|
E|-------------------------------|------------------------\------|
                                                     (Pick scratch)


  E                               B
e|0------ 0-----0 0---0-- 0------|7------ 7-----7 7---7-- 7------|
B|0-------0-----0-0---0---0------|7-------7-----7-7---7---7------|
G|1-------1-----1-1---1---1------|8-------8-----8-8---8---8------|
D|2-------2-----2-2---2---2------|9-------9-----9-9---9---9------|
A|2-------2-----2-2---2---2------|9-------9-----9-9---9---9------|
E|0-------0-----0-0---0---0------|7-------7-----7-7---7---7------|

e|4------ 4-----4 5---4-- ----4--|------- ------- ------- -------|
B|5-------5-----5-5---5---7---5--|4-------4-----4-5---4---2---0--|
G|4-------4-----4-4---4---4---4--|4-------4-----4-4---4---4---4--|
D|-------------------------------|4-------4-----4-4---4---4---4--|
A|-------------------------------|-------------------------------|
E|-------------------------------|-------------------------------|




  E                               B
e|0------ 0-----0 0---0-- 0---0--|7------ 7-----7 7---7-- 7---7--|
B|0-------0-----0-0---0---0---0--|7-------7-----7-7---7---7---7--|
G|1-------1-----1-1---1---1---1--|8-------8-----8-8---8---8---8--|
D|2-------2-----2-2---2---2---2--|9-------9-----9-9---9---9---9--|
A|2-------2-----2-2---2---2---2--|9-------9-----9-9---9---9---9--|
E|0-------0-----0-0---0---0---0--|7-------7-----7-7---7---7---7--|

e|4------ 4-----4 5---4-- ----4--|------- ------- ------- -------|
B|5-------5-----5-5---5---7---5--|4-------4-----4-5---4---2---0--|
G|4-------4-----4-4---4---4---4--|4-------4-----4-4---4---4---4--|
D|-------------------------------|4-------4-----4-4---4---4---4--|
A|-------------------------------|-------------------------------|
E|-------------------------------|-------------------------------|



  
  E                               B
e|0------ 0------ 0---0-- 0---0--|7------ 7------ 7------ 7---7--|
B|0-------0-------0---0---0---0--|7-------7-------7-------7---7--|
G|1-------1-------1---1---1---1--|8-------8-------8-------8---8--|
D|2-------2-------2---2---2---2--|9-------9-------9-------9---9--|
A|2-------2-------2---2---2---2--|9-------9-------9-------9---9--|
E|0-------0-------0---0---0---0--|7-------7-------7-------7---7--|
  Time,                                           I   see     you 
e|4------ 4-----4 5---4-- ----4--|------- ------- ------- -------|
B|5-------5-----5-5---5---7---5--|4-------4-----4-5---4---2---0--|
G|4-------4-----4-4---4---4---4--|4-------4-----4-4---4---4---4--|
D|-------------------------------|4-------4-----4-4---4---4---4--|
A|-------------------------------|-------------------------------|
E|-------------------------------|-------------------------------|




  E                               B
e|0------ 0------ 0---0-- 0------|7------ 7------ 7---7-- 7------|
B|0-------0-------0---0---0------|7-------7-------7---7---7------|
G|1-------1-------1---1---1------|8-------8-------8---8---8------|
D|2-------2-------2---2---2------|9-------9-------9---9---9------|
A|2-------2-------2---2---2------|9-------9-------9---9---9------|
E|0-------0-------0---0---0------|7-------7-------7---7---7------|
  wasting     all     this    time,       but it's    not     mine
e|4------ 4-----4 5---4-- ----4--|------- ------- ------- -------|
B|5-------5-----5-5---5---7---5--|4-------4-----4-5---4---2---0--|
G|4-------4-----4-4---4---4---4--|4-------4-----4-4---4---4---4--|
D|-------------------------------|4-------4-----4-4---4---4---4--|
A|-------------------------------|-------------------------------|
E|-------------------------------|-------------------------------|




  F#m                             F#m7
e|2------ 2------ 2---2-- 2---2--|2------ 2------ 2------ 2---2--|
B|2-------2-------2---2---2---2--|2-------2-------2-------2---2--|
G|2-------2-------2---2---2---2--|2-------2-------2-------2---2--|
D|4-------4-------4---4---4---4--|4-------4-------4-------4---4--|
A|4-------4-------4---4---4---4--|4-------4-------4-------4---4--|
E|2-------2-------2---2---2---3--|0-------0-------0-------0---0--|
                                                  It's your   time



  D               Dmaj7               B
e|2------ 2------ 2------ 2------|----2-- ------- 2-----2 2---2--|
B|3-------3-------3-------3------|----4-----------4-----4-4---4--|
G|2-------2-------2-------2------|----4-----------4-----4-4---4--|
D|0-------0----------------------|----4-----------4-----4-4---4--|
A|----------------4-------4------|----2-----------2-----2-2---2--|
E|-------------------------------|-------------------------------|

e|------- ------- ------- -------|------- ------- ------- -------|
B|-------------------------------|----4-----------5---4---2---0--|
G|-------------------------------|----4-----------4---4---4---4--|
D|-------------------------------|----4-----------4---4---4---4--|
A|-------------------------------|----2-----------2---2---2---2--|
E|-------------------------------|-------------------------------|




  E                               B
e|0------ 0------ 0-----0 0---0--|7------ 7------ 7------ 7---7--|
B|0-------0-------0-----0-0---0--|7-------7-------7-------7---7--|
G|1-------1-------1-----1-1---1--|8-------8-------8-------8---8--|
D|2-------2-------2-----2-2---2--|9-------9-------9-------9---9--|
A|2-------2-------2-----2-2---2--|9-------9-------9-------9---9--|
E|0-------0-------0-----0-0---0--|7-------7-------7-------7---7--|
  Time,                                           I   see     you 
e|4------ 4-----4 5---4-- ----4--|------- ------- ------- -------|
B|5-------5-----5-5---5---7---5--|4-------4-----4-5---4---2---0--|
G|4-------4-----4-4---4---4---4--|4-------4-----4-4---4---4---4--|
D|-------------------------------|4-------4-----4-4---4---4---4--|
A|-------------------------------|-------------------------------|
E|-------------------------------|-------------------------------|




  E                               B
e|0------ 0-----0 0---0-- 0---0--|7------ 7------ 7------ 7------|
B|0-------0-----0-0---0---0---0--|7-------7-------7-------7------|
G|1-------1-----1-1---1---1---1--|8-------8-------8-------8------|
D|2-------2-----2-2---2---2---2--|9-------9-------9-------9------|
A|2-------2-----2-2---2---2---2--|9-------9-------9-------9------|
E|0-------0-----0-0---0---0---0--|7-------7-------7-------7------|
  running     on      the     line,       and it's    not     right
e|4------ 4-----4 5---4-- ----4--|------- ------- ------- -------|
B|5-------5-----5-5---5---7---5--|4-------4-----4-5---4---2---0--|
G|4-------4-----4-4---4---4---4--|4-------4-----4-4---4---4---4--|
D|-------------------------------|4-------4-----4-4---4---4---4--|
A|-------------------------------|-------------------------------|
E|-------------------------------|-------------------------------|




  F#m                             F#m7
e|2------ 2------ 2---2-- 2------|2------ 2------ 2------ 2------|
B|2-------2-------2---2---2------|2-------2-------2-------2------|
G|2-------2-------2---2---2------|2-------2-------2-------2------|
D|4-------4-------4---4---4------|4-------4-------4-------4------|
A|4-------4-------4---4---4------|4-------4-------4-------4------|
E|2-------2-------2---2---2------|0-------0-------0-------0------|
                                              to  fear the    light



  D                               Dmaj7
e|2------ 2------ 2------ 2------|2------ 2------ 2------ 2------|
B|3-------3-------3-------3------|3-------3-------3-------3------|
G|2-------2-------2-------2------|2-------2-------2-------2------|
D|0-------0-------0-------0------|-------------------------------|
A|-------------------------------|4-------4-------4-------4------|
E|-------------------------------|-------------------------------|
                                          And     all     the



  Bm                              E
e|2------ 2------ 2------ 2------|4------ 4------ 4------ 4------|
B|3-------3-------3-------3------|5-------5-------5-------5------|
G|4-------4-------4-------4------|4-------4-------4-------4------|
D|4-------4-------4-------4------|-------------------------------|
A|2-------2-------2-------2------|-------------------------------|
E|-------------------------------|0-------0-------0-------0------|
  things  you said,           you understood          well



  A               Amaj7           F#m7            A
e|------- ------- ------- -------|------- ------- ------- -------|
B|2-------2-------2-------2------|2-------2-------2-------2------|
G|2-------2-------2-------2------|2-------2-------2-------2------|
D|2-------2-------2-------2------|2-------2-------2-------2------|
A|0-----------0------------------|-------------------------------|
E|----------------4-----------4--|2-----------2---0-----------0--|
          The past        is gone



  B                               Dm              Bdim
e|7------ 7------ 7------ 7------|5------ 5------ 7------ 7------|
B|7-------7-------7-------7------|6-------6-------6-------6------|
G|8-------8-------8-------8------|7-------7-------7-------7------|
D|7-------7-------7-------7------|7-------7-------6-------6------|
A|9-------9-------9-------9------|5-------5----------------------|
E|7-------7-------7-------7------|-------------------------------|
              And there's no      welcome         in      your eyes
                                 (Aaaaaaaaaaaaaaaaaaaahhhhhhhhhhhhh)


                                 (.
  A                               B7sus4
e|------- ------- ------- -------|0------ ------- ------- -------|
B|5-------5-------5-------5------|0------------------------------|
G|6-------6-------6-------6------|2------------------------------|
D|7-------7-------7-------7------|4------------------------------|
A|7-------7-------7-------7------|2------------------------------|
E|5-------5-------5-------5------|-------------------------------|  
  



  E                               B
e|0------ 0-----0 0---0-- 0------|7------ 7-----7 7---7-- 7------|
B|0-------0-----0-0---0---0------|7-------7-----7-7---7---7------|
G|1-------1-----1-1---1---1------|8-------8-----8-8---8---8------|
D|2-------2-----2-2---2---2------|9-------9-----9-9---9---9------|
A|2-------2-----2-2---2---2------|9-------9-----9-9---9---9------|
E|0-------0-----0-0---0---0------|7-------7-----7-7---7---7------|
  Time,                                           I   feel    you
         (Time)
e|4------ 4-----4 5---4-- ----4--|------- ------- ------- -------|
B|5-------5-----5-5---5---7---5--|4-------4-----4-5---4---2---0--|
G|4-------4-----4-4---4---4---4--|4-------4-----4-4---4---4---4--|
D|-------------------------------|4-------4-----4-4---4---4---4--|
A|-------------------------------|-------------------------------|
E|-------------------------------|-------------------------------|




  E                               B
e|0------ 0-----0 0---0-- 0------|7------ 7-----7 7---7-- 7---7--|
B|0-------0-----0-0---0---0------|7-------7-----7-7---7---7---7--|
G|1-------1-----1-1---1---1------|8-------8-----8-8---8---8---8--|
D|2-------2-----2-2---2---2------|9-------9-----9-9---9---9---9--|
A|2-------2-----2-2---2---2------|9-------9-----9-9---9---9---9--|
E|0-------0-----0-0---0---0------|7-------7-----7-7---7---7---7--|
  wasting     all     this    time        And it's    a       crime. 
                 (Time)
e|4------ 4-----4 5---4-- ----4--|------- ------- ------- -------|
B|5-------5-----5-5---5---7---5--|4-------4-----4-5---4---2---0--|
G|4-------4-----4-4---4---4---4--|4-------4-----4-4---4---4---4--|
D|-------------------------------|4-------4-----4-4---4---4---4--|
A|-------------------------------|-------------------------------|
E|-------------------------------|-------------------------------|




  F#m                             F#m7
e|2------ 2------ 2---2-- 2---2--|2------ 2------ 2---2-- 2---2--|
B|2-------2-------2---2---2---2--|2-------2-------2---2---2---2--|
G|2-------2-------2---2---2---2--|2-------2-------2---2---2---2--|
D|4-------4-------4---4---4---4--|4-------4-------4---4---4---4--|
A|4-------4-------4---4---4---4--|4-------4-------4---4---4---4--|
E|2-------2-------2---2---2---2--|0-------0-------0---0---0---0--|
                                                  so  sublime


  
  D                               Dmaj7
e|2------ 2------ 2------ 2------|2------ 2------ 2------ 2------|
B|3-------3-------3-------3------|3-------3-------3-------3------|
G|2-------2-------2-------2------|2-------2-------2-------2------|
D|0-------0-------0-------0------|-------------------------------|
A|-------------------------------|4-------4-------4-------4------|
E|-------------------------------|-------------------------------|
                                          And     all     the



  D                               E
e|2------ 2------ 2------ 2------|4------ 4------ 4------ 4------|
B|3-------3-------3-------3------|5-------5-------5-------5------|
G|2-------2-------2-------2------|4-------4-------4-------4------|
D|0-------0-------0-------0------|-------------------------------|
A|-------------------------------|-------------------------------|
E|-------------------------------|0-------0-------0-------0------|
  things  we  did,           you  understood          well
                 (Things we  did)


  A               Amaj7           F#m7            A
e|------- ------- ------- -------|------- ------- ------- -------|
B|2-------2-------2-------2------|2-------2-------2-------2------|
G|2-------2-------2-------2------|2-------2-------2-------2------|
D|2-------2-------2-------2------|2-------2-------2-------2------|
A|0-----------0------------------|-------------------------------|
E|----------------4-----------4--|2-----------2---0-----------0--|
          We can't        deny. 
  (Ooooooooooooooooooooooooooooooooooooooohhhhhhhhhhhhhh)


  B                               Dm              Bdim
e|7------ 7------ 7------ 7------|5------ 5------ 7------ 7------|
B|7-------7-------7-------7------|6-------6-------6-------6------|
G|8-------8-------8-------8------|7-------7-------7-------7------|
D|7-------7-------7-------7------|7-------7-------6-------6------|
A|9-------9-------9-------9------|5-------5----------------------|
E|7-------7-------7-------7------|-------------------------------|
                  There's no      hiding          this    dis....



  F                               Fdim
e|5------ 5------ 5------ 5------|4------ 4------ 4------ 4------|
B|6-------6-------6-------6------|3-------3-------3-------3------|
G|5-------5-------5-------5------|4-------4-------4-------4------|
D|7-------7-------7-------7------|3-------3-------3-------3------|
A|8-------8-------8-------8------|-------------------------------|
E|-------------------------------|-------------------------------|
  guise.                                  Oooh,           gonna 



  C                               F7
e|0------ 0------ 0------ 0------|5------ 5------ 5------ 5------|
B|1-------1-------1-------1------|6-------6-------6-------6------|
G|0-------0-------0-------0------|5-------5-------5-------5------|
D|2-------2-------2-------2------|7-------7-------7-------7------|
A|3-------3-------3-------3------|6-------6-------6-------6------|
E|0-------0-------0-------0------|-------------------------------|
  let you     down                        Oooh,           gonna



  Bb                              Db              Eb
e|6------ 6------ 6------ 6------|4------ 4------ 6------ 6------|
B|6-------6-------6-------6------|6-------6-------8-------8------|
G|7-------7-------7-------7------|6-------6-------8-------8------|
D|8-------8-------8-------8------|6-------6-------8-------8------|
A|8-------8-------8-------8------|4-------4-------6-------6------|
E|6-------6-------6-------6------|-------------------------------|
  let you     down    this    time            and I'll be     fine



  F                               Fdim
e|5------ 5------ 5------ 5------|4------ 4------ 4------ 4------|
B|6-------6-------6-------6------|3-------3-------3-------3------|
G|5-------5-------5-------5------|4-------4-------4-------4------|
D|7-------7-------7-------7------|3-------3-------3-------3------|
A|8-------8-------8-------8------|-------------------------------|
E|-------------------------------|-------------------------------|
                                          Oooh,
                 (Aaaaaaaaaaaaaaaaaaaaaaaaaahhhhhhhhhhhhhhhhhhhh)


  C                               F7
e|0------ 0------ 0------ 0------|5------ 5------ 5------ 5------|
B|1-------1-------1-------1------|6-------6-------6-------6------|
G|0-------0-------0-------0------|5-------5-------5-------5------|
D|2-------2-------2-------2------|7-------7-------7-------7------|
A|3-------3-------3-------3------|6-------6-------6-------6------|
E|0-------0-------0-------0------|-------------------------------|
  let you     down                    Ooooh,          gonna
                 (Aaaaaaaaaaaaaaaaaaaaaaaaaahhhhhhhhhhhhhhhhhhhh)


  Bb                              C#              F#
e|6------ 6------ 6------ 6------|4------ 4------ 6------ 6------|
B|6-------6-------6-------6------|6-------6-------7-------7------|
G|7-------7-------7-------7------|6-------6-------6-------6------|
D|8-------8-------8-------8------|6-------6----------------------|
A|8-------8-------8-------8------|-------------------------------|
E|6-------6-------6-------6------|4-------4-------6-------6------|
  let you     down    this    time            And never   pay you 
                         (Gonna   let you)
[ Tab from: http://www.guitartabs.cc/tabs/w/wondermints/time_tab_ver_2.html ]
 
                                (.
  B7sus4                          B13
e|7------ 7------ 7------ 7------|7------ ------- ------- -------|
B10------10------10------10------|9------------------------------|
G|9-------9-------9-------9------|8------------------------------|
D|7-------7-------7-------7------|7------------------------------|
A|9-------9-------9-------9------|9------------------------------|
E|7-------7-------7-------7------|7------------------------------|
  mind.
 (Oooooooooooooooooooooooohhhhhhhaaaaaaaaaaaaaaaaaahhhhhhhhhhhhh)


  E                               B
e|0------ 0-----0 0---0-- ----0--|7------ 7-----7 7------ 7------|
B|0-------0-----0-0---0-------0--|7-------7-----7-7-------7------|
G|1-------1-----1-1---1-------1--|8-------8-----8-8-------8------|
D|2-------2-----2-2---2-------2--|9-------9-----9-9-------9------|
A|2-------2-----2-2---2-------2--|9-------9-----9-9-------9------|
E|0-------0-----0-0---0-------0--|7-------7-----7-7-------7------|
  Time,                                           , I think   you're 
e|----0-- ------- 0------ ----0--|------- 0------ ----0-- ----0--|
B|--------0-----------0----------|0-----------0-------0-------0--|
G|4-----------2-----------1------|-------------------------------|
D|-------------------------------|----4-----------2-------1------|
A|-------------------------------|-------------------------------|
E|-------------------------------|-------------------------------|



  E                               B
e|0------ 0-----0 0---0-- ----0--|7------ 7-----7 7------ 7------|
B|0-------0-----0-0---0-------0--|7-------7-----7-7-------7------|
G|1-------1-----1-1---1-------1--|8-------8-----8-8-------8------|
D|2-------2-----2-2---2-------2--|9-------9-----9-9-------9------|
A|2-------2-----2-2---2-------2--|9-------9-----9-9-------9------|
E|0-------0-----0-0---0-------0--|7-------7-----7-7-------7------|
   running    out     of      signs       To  join    with    mine.
e|----0-- ------- 0------ ----0--|------- 0------ ----0-- ----0--|
B|--------0-----------0----------|0-----------0-------0-------0--|
G|-------------------------------|-------------------------------|
D|2-----------1------------------|-------------------------------|
A|------------------------4------|----2-----------0--------------|
E|-------------------------------|------------------------4------|

 

  F#m                             F#m7
e|2------ 2------ 2---2-- 2------|2------ 2------ 2---2-- 2------|
B|2-------2-------2---2---2------|2-------2-------2---2---2------|
G|2-------2-------2---2---2------|2-------2-------2---2---2------|
D|4-------4-------4---4---4------|4-------4-------4---4---4------|
A|4-------4-------4---4---4------|4-------4-------4---4---4------|
E|2-------2-------2---2---2------|0-------0-------0---0---0------|  
                                             It's so unkind.


  D                               Dmaj7
e|2------ 2------ 2------ 2------|2------ 2------ 2------ 2------|
B|3-------3-------3-------3------|3-------3-------3-------3------|
G|2-------2-------2-------2------|2-------2-------2-------2------|
D|0-------0-------0-------0------|-------------------------------|
A|-------------------------------|4-------4-------4-------4------|
E|-------------------------------|-------------------------------|
                                          And     all     the


  D                               E
e|2------ 2------ 2------ 2------|4------ 4------ 4------ 4------|
B|3-------3-------3-------3------|5-------5-------5-------5------|
G|2-------2-------2-------2------|4-------4-------4-------4------|
D|0-------0-------0-------0------|-------------------------------|
A|-------------------------------|-------------------------------|
E|-------------------------------|0-------0-------0-------0------|
  things  we  said,           you understood          well
                 (Things  we  said)


  A               Amaj7           F#m7            A
e|------- ------- ------- -------|------- ------- ------- -------|
B|2-------2-------2-------2------|2-------2-------2-------2------|
G|2-------2-------2-------2------|2-------2-------2-------2------|
D|2-------2-------2-------2------|2-------2-------2-------2------|
A|0-----------0------------------|-------------------------------|
E|----------------4-----------4--|2-----------2---0-----------0--|
          We  can't      deny
 (Ooooooooooooooooooooooooooooooooooohhhhhhhhhhhhhhhhhhhhhhhhhhhh)
e|------- ------- ------- -------|------- ------- ------- -------|
B|--------5---------------5------|--------2---------------2------|
G|----6---------------6----------|----2---------------2----------|
D|7---------------6--------------|4---------------2--------------|
A|-------------------------------|-------------------------------|
E|-------------------------------|-------------------------------|



  B                               Dm              Bdim
e|7------ 7------ 7------ 7------|5------ 5------ 7------ 7------|
B|7-------7-------7-------7------|6-------6-------6-------6------|
G|8-------8-------8-------8------|7-------7-------7-------7------|
D|7-------7-------7-------7------|7-------7-------6-------6------|
A|9-------9-------9-------9------|5-------5----------------------|
E|7-------7-------7-------7------|-------------------------------|
              And there's no      welcome         in      your     
                                 (Eyes)


  A                               A7
e|------- ------- ------- -------|------- ------- ------- -------|
B|2------------------------------|-------------------------------|
G|2------------------------------|-------------------------------|
D|2------------------------------|-------------------------------|
A|-------------------------------|-------------------------------|
E|0---------------------------/--|3------------------------------|  
  eyes.
                                                 (In your     eyes)
e|12----- 12----- 12----- 12-----|12----- 12----- 12----- 12-----|
B|10------12------10------12-----|10------12------10------12-----|
G|----9-------9-------9-------9--|----9-------9-------9-------9--|
D|-------------------------------|-------------------------------|
A|-------------------------------|-------------------------------|
E|-------------------------------|-------------------------------|



  F#m                             F               G
e|------- ------- ------- -------|------- ------- ------- -------|
B|-------------------------------|-------------------------------|
G|-------------------------------|-------------------------------|
D|-------------------------------|-------------------------------|
A|-------------------------------|-------------------------------|
E|2------------------------------|1---------------3--------------|
                  In yourn    eyes

e|12----- 12----- 12----- 12-----|12----- 12----- 12----- 12-----|
B|10------12------10------12-----|10------12------10------12-----|
G|----9-------9-------9-------9--|----9-------9-------9-------9--|
D|-------------------------------|-------------------------------|
A|-------------------------------|-------------------------------|
E|-------------------------------|-------------------------------|



  A                               A7
e|------- ------- ------- -------|------- ------- ------- -------|
B|-------------------------------|-------------------------------|
G|-------------------------------|-------------------------------|
D|-------------------------------|-------------------------------|
A|0------------------------------|-------------------------------|
E|-------------------------------|3------------------------------|  
 
                                                 (In your     eyes)
e|12----- 12----- 12----- 12-----|12----- 12----- 12----- 12-----|
B|10------12------10------12-----|10------12------10------12-----|
G|----9-------9-------9-------9--|----9-------9-------9-------9--|
D|-------------------------------|-------------------------------|
A|-------------------------------|-------------------------------|
E|-------------------------------|-------------------------------|



                                  x   x   x   x   x   x   x   x
  F#m                             F               G
e|------- ------- ------- -------|------- ------- ------- -------|
B|-------------------------------|-------------------------------|
G|-------------------------------|-------------------------------|
D|-------------------------------|-------------------------------|
A|-------------------------------|-------------------------------|
E|2------------------------------|1---------------3--------------|
                  In your     eyes

e|12----- 12----- 12----- 12-----|12----- 12----- 12----- 12-----|
B|10------12------10------12-----|10------12------10------12-----|
G|----9-------9-------9-------9--|----9-------9-------9-------9--|
D|-------------------------------|-------------------------------|
A|-------------------------------|-------------------------------|
E|-------------------------------|-------------------------------|




  A                               A7
e|------- ------- ------- -------|------- ------- ------- -------|
B|2-------2-------2-------2------|2-------2-------2-------2------|
G|2-------2-------2-------2------|2-------2-------2-------2------|
D|2-------2-------2-------2------|2-------2-------2-------2------|
A|0---0-------0------------------|-------------------------------|
E|-------------------------------|3---3-------3------------------|  
  
                                                 (In your     eyes)
e|12----- 12----- 12----- 12-----|12----- 12----- 12----- 12-----|
B|10------12------10------12-----|10------12------10------12-----|
G|----9-------9-------9-------9--|----9-------9-------9-------9--|
D|-------------------------------|-------------------------------|
A|-------------------------------|-------------------------------|
E|-------------------------------|-------------------------------|



  F#m7                            Fmaj7           G9
e|------- ------- ------- -------|------- ------- ------- -------|
B|2-------2-------2-------2------|1-------1-------0-------0------|
G|2-------2-------2-------2------|2-------2-------2-------2------|
D|2-------2-------2-------2------|2-------2-------3-------3------|
A|-------------------------------|-------------------------------|
E|2---2-------2------------------|1---1-------1---3---3---3---3--|
                  In your     eyes

e|12----- 12----- 12----- 12-----|12----- 12----- 12----- 12-----|
B|10------12------10------12-----|10------12------10------12-----|
G|----9-------9-------9-------9--|----9-------9-------9-------9--|
D|-------------------------------|-------------------------------|
A|-------------------------------|-------------------------------|
E|-------------------------------|-------------------------------|



  A                               A7
e|------- ------- ------- -------|------- ------- ------- -------|
B|2-------2-------2-------2------|2-------2-------2-------2------|
G|2-------2-------2-------2------|2-------2-------2-------2------|
D|2-------2-------2-------2------|2-------2-------2-------2------|
A|0---0---0---0---0---0---0---0--|-------------------------------|
E|-------------------------------|3---3--------------------------|  
  
         (There's no          wellcome        in      your     eyes)                     
e|12----- 12----- 12----- 12-----|12----- 12----- 12----- 12-----|
B|10------12------10------12-----|10------12------10------12-----|
G|----9-------9-------9-------9--|----9-------9-------9-------9--|
D|-------------------------------|-------------------------------|
A|-------------------------------|-------------------------------|
E|-------------------------------|-------------------------------|



  F#m7                            Fmaj7           G9
e|------- ------- ------- -------|------- ------- ------- -------|
B|2-------2-------2-------2------|1-------1-------0-------0------|
G|2-------2-------2-------2------|2-------2-------2-------2------|
D|2-------2-------2-------2------|2-------2-------3-------3------|
A|-------------------------------|-------------------------------|
E|2---2-------2-------2----------|1---1-------1---3---3---3---3--|
                  No              wellcome        in      your eyes   
                                 (wellcome        in      your eyes)
e|12----- 12----- 12----- 12-----|12----- 12----- 12----- 12-----|
B|10------12------10------12-----|10------12------10------12-----|
G|----9-------9-------9-------9--|----9-------9-------9-------9--|
D|-------------------------------|-------------------------------|
A|-------------------------------|-------------------------------|
E|-------------------------------|-------------------------------|



  A                               A7
e|------- ------- ------- -------|------- ------- ------- -------|
B|2-------2-------2-------2------|2-------2-------2-------2------|
G|2-------2-------2-------2------|2-------2-------2-------2------|
D|2-------2-------2-------2------|2-------2-------2-------2------|
A|0---0-------0------------------|-------------------------------|
E|-------------------------------|3---3-------3------------------|  
  
                 (No              wellcome        in      your eyes)                       
e|12----- 12----- 12----- 12-----|12----- 12----- 12----- 12-----|
B|10------12------10------12-----|10------12------10------12-----|
G|----9-------9-------9-------9--|----9-------9-------9-------9--|
D|-------------------------------|-------------------------------|
A|-------------------------------|-------------------------------|
E|-------------------------------|-------------------------------|



  F#m7                            Fmaj7           G9
e|------- ------- ------- -------|------- ------- ------- -------|
B|2-------2-------2-------2------|1-------1-------0-------0------|
G|2-------2-------2-------2------|2-------2-------2-------2------|
D|2-------2-------2-------2------|2-------2-------3-------3------|
A|-------------------------------|-------------------------------|
E|2---2-------2------------------|1---1-------1---3---3---3---3--|
                  No              wellcome        in      your eyes
                                 (wellcome        in      your eyes)
e|12----- 12----- 12----- 12-----|12----- 12----- 12----- 12-----|
B|10------12------10------12-----|10------12------10------12-----|
G|----9-------9-------9-------9--|----9-------9-------9-------9--|
D|-------------------------------|-------------------------------|
A|-------------------------------|-------------------------------|
E|-------------------------------|-------------------------------|



  A                               A7
e|------- ------- ------- -------|------- ------- ------- -------|
B|2-------2-------2-------2------|2-------2-------2-------2------|
G|2-------2-------2-------2------|2-------2-------2-------2------|
D|2-------2-------2-------2------|2-------2-------2-------2------|
A|0---0-------0------------------|-------------------------------|
E|-------------------------------|3---3-------3------------------|  
  eyes
                 (No              wellcome        in      your eyes)                        
e|12----- 12----- 12----- 12-----|12----- 12----- 12----- 12-----|
B|10------12------10------12-----|10------12------10------12-----|
G|----9-------9-------9-------9--|----9-------9-------9-------9--|
D|-------------------------------|-------------------------------|
A|-------------------------------|-------------------------------|
E|-------------------------------|-------------------------------|



  F#m7                            Fmaj7           G9
e|------- ------- ------- -------|------- ------- ------- -------|
B|2-------2-------2-------2------|1-------1-------0-------0------|
G|2-------2-------2-------2------|2-------2-------2-------2------|
D|2-------2-------2-------2------|2-------2-------3-------3------|
A|-------------------------------|-------------------------------|
E|2---2-------2------------------|1---1-------1---3---3---3---3--|
                  No              wellcome        in      your eyes
                                 (wellcome        in      your eyes)
e|12----- 12----- 12----- 12-----|12----- 12----- 12----- 12-----|
B|10------12------10------12-----|10------12------10------12-----|
G|----9-------9-------9-------9--|----9-------9-------9-------9--|
D|-------------------------------|-------------------------------|
A|-------------------------------|-------------------------------|
E|-------------------------------|-------------------------------|



  A                               A7
e|------- ------- ------- -------|------- ------- ------- -------|
B|--------0---------------0------|--------0---------------0------|
G|2---------------2--------------|2---------------2--------------|
D|2---------------2--------------|2---------------2--------------|
A|0------------------------------|-------------------------------|
E|-------------------------------|3------------------------------|

e|12----- 12----- 12----- 12-----|12----- 12----- 12----- 12-----|
B|10------12------10------12-----|10------12------10------12-----|
G|----9-------9-------9-------9--|----9-------9-------9-------9--|
D|-------------------------------|-------------------------------|
A|-------------------------------|-------------------------------|
E|-------------------------------|-------------------------------|



  F#m7                            Fmaj7           G9
e|------- ------- ------- -------|------- ------- ------- -------|
B|--------0---------------0------|--------0---------------0------|
G|2---------------2--------------|2---------------2--------------|
D|2---------------2--------------|2---------------3--------------|
A|-------------------------------|-------------------------------|
E|2------------------------------|1---------------3--------------|

e|12----- 12----- 12----- 12-----|12----- 12----- 12----- 12-----|
B|10------12------10------12-----|10------12------10------12-----|
G|----9-------9-------9-------9--|----9-------9-------9-------9--|
D|-------------------------------|-------------------------------|
A|-------------------------------|-------------------------------|
E|-------------------------------|-------------------------------|



  A
e|------- ------- ------- -------|------- ------- ------- -------|
B|-------------------------------|-------------------------------|
G|2------------------------------|-------------------------------|
D|2------------------------------|-------------------------------|
A|0------------------------------|-------------------------------|
E|-------------------------------|-------------------------------|

e|12----- 12----- 12----- 12-----|12----- 12----- 12----- 12-----|
B|10------12------10------12-----|10------12------10------12-----|
G|----9-------9-------9-------9--|----9-------9-------9-------9--|
D|-------------------------------|-------------------------------|
A|-------------------------------|-------------------------------|
E|-------------------------------|-------------------------------|




e|12----- 12----- 12----- 12-----|12----- 12----- 12----- 12-----|
B|10------12------10------12-----|10------12------10------12-----|
G|----9-------9-------9-------9--|----9-------9-------9-------9--|
D|-------------------------------|-------------------------------|
A|-------------------------------|-------------------------------|
E|-------------------------------|-------------------------------|
  .............................Fade..............................



e|12----- 12----- 12----- 12-----|12----- 12----- 12----- 12-----|
B|10------12------10------12-----|10------12------10------12-----|
G|----9-------9-------9-------9--|----9-------9-------9-------9--|
D|-------------------------------|-------------------------------|
A|-------------------------------|-------------------------------|
E|-------------------------------|-------------------------------|
  ...............................................................


        B  Bend
        R  Release
        /  slide up
        \  slide down
        H  hammer-on
        P  pull-off
        ~  vibrato
        +  harmonic
        x  Mute note
        . - play note like a dot in standard notation
        ^ - ties two notes together
        (. Pause
Comments