Wondermints - Proto Pretty Chords & Tabs

 

Proto Pretty Chords & Tabs

Wondermints Chords & Tabs

Version: 1 Type: Tab 0 ratings
1 star 2 stars 3 stars 4 stars 5 stars
comments

Proto Pretty Tab

   
------------------------------------------------------------------------


  WONDERMINTS - PROTO PRETTY (Walusko/Sahanaja) From WONDERMINTS album.
                Released 1996.


------------------------------------------------------------------------

  Tabbed by:PJVillanueva






I wanted to give my soul to you.
I thought I could feel you pulling me through.

The DNA is pretty - you know it makes me smile.
The oxygen is plenty - don't touch that dial.

I thought I could make it, but only with you.
I wished I could bake it - if only I could.

The DNA is pretty - you know it makes her smile.
The jellyhead is singing - don't ask her why.

Oceans old,
From a river flow,
Forever slip away...

I wanted to give my soul to you.
I thought I could feel you pulling me through.

The DNA is pretty - you know it made me smile.
The oxygen is plenty - don't touch that dial.

The DNA is pretty - you know it made her smile.
The jellyhead is singing - don't ask her why.

The DNA is pretty - you know it made us smile.
The trilobite is swimming inside our mind.
proto-pretty





                                     
  
e|----0-- ------- ----0-- -------|----0-- ------- ----0-- -------|
B|--------4---3-----------3------|--------0---------------0------|
G|4-----------4------------------|----------------------------0--|
D|----------------------------5--|6-----------7------------------|
A|-------------------------------|-------------------------------|
E|-------------------------------|-------------------------------|




e|------- ------- ------- -------|------- ------- ------- -------|
B|----7---------------8----------|----9---------------10---------|
G|--------8---7-----------7---0--|------------------------9---0--|
D|9-----------9------------------|9-------9---11-----------------|
A|-------------------------------|-------------------------------|
E|-------------------------------|-------------------------------|




e|----0-- ------- ----0-- -------|----0-- ------- ----0-- -------|
B|--------4---3-----------3------|--------0---------------0------|
G|4-----------4------------------|----------------------------0--|
D|----------------------------5--|6-----------7------------------|
A|-------------------------------|-------------------------------|
E|-------------------------------|-------------------------------|
  B               G               E               A
e|------- ------- ------- -------|------- ------- ------- -------|
B|7---------------8--------------|9--------------10--------------|
G|8---------------7--------------|9---------------9--------------|
D|9---------------9--------------|9--------------11--------------|
A|-------------------------------|-------------------------------|
E|-------------------------------|-------------------------------|




e|------- ------- ------- -------|------- ------- ------- -------|
B|----7---------------8----------|----9---------------10---------|
G|--------8---7-----------7---0--|------------------------9---0--|
D|9-----------9------------------|9-------9---11-----------------|
A|-------------------------------|-------------------------------|
E|-------------------------------|-------------------------------|
  B               G               E               A
e|------- ------- ------- -------|------- ------- ------- -------|
B|7---------------8--------------|9--------------10--------------|
G|8---------------7--------------|9---------------9--------------|
D|9---------------9--------------|9--------------11--------------|
A|-------------------------------|-------------------------------|
E|-------------------------------|-------------------------------|




          B               G               E               A
e|------- 7------ ------- 7------|------- 7------ ------- 5------|
B|--------7---------------8------|--------9---------------5------|
G|--------8---------------7------|--------9---------------6------|
D|--------9---------------9------|--------9---------------7------|
A|--------9--------------10------|--------7---------------7------|
E|--------7----------------------|------------------------5------|
                  I                               wanted to   give
 (I)

          B               G               E               A
e|------- 7------ ------- 7---7--|------- 7------ ------- 5---5--|
B|--------7---------------8---8--|--------9---------------5---5--|
G|--------8---------------7---7--|--------9---------------6---6--|
D|--------9---------------9---9--|--------9---------------7---7--|
A|--------9--------------10--10--|--------7---------------7---7--|
E|--------7----------------------|------------------------5---5--|
      my          soul    to  you.


      B           G               E           A
e|----7-- ------- 7------ -------|7---7-- ----5-- ------- 5------|
B|----7-----------8--------------|9---9-------5-----------5------|
G|----8-----------7--------------|9---9-------6-----------6------|
D|----9-----------9--------------|9---9-------7-----------7------|
A|----9----------10--------------|7---7-------7-----------7------|
E|----7--------------------------|------------5-----------5------|
                  I                               thought I could feel
 (I)

      B           E7              A                   F#
e|----7-- ------- 7------ -------|9------ ----9-- ----9-- -------|
B|----7-----------9--------------10----------10------11----------|
G|----8-----------7--------------|9-----------9------11----------|
D|----9-----------9--------------11----------11------11----------|
A|----9-----------7--------------12----------12-------9----------|
E|----7--------------------------|-------------------------------|
      you     pulling     me  through.



  B               Bsus4           E6
e|----2-- ------- 0------ ----0--|----0-- ------- 0------ -------|
B|--------4-----------4----------|--------2-----------2-------4--|
G|4-----------4-----------4------|4-----------4-----------4------|
D|-------------------------------|-------------------------------|
A|-------------------------------|-------------------------------|
E|-------------------------------|-------------------------------|
      The     D       N       A       is      pretty  


  B               Bsus4           E6
e|----2-- ------- 0------ ----0--|----0-- ------- 0------ -------|
B|--------4-----------4----------|--------2-----------2-------4--|
G|4-----------4-----------4------|4-----------4-----------4------|
D|-------------------------------|-------------------------------|
A|-------------------------------|-------------------------------|
E|-------------------------------|-------------------------------|
      you     know    it      makes   me      smile.


  B               Bsus4           E6
e|----2-- ------- 0------ ----0--|----0-- ------- 0------ -------|
B|--------4-----------4----------|--------2-----------2-------4--|
G|4-----------4-----------4------|4-----------4-----------4------|
D|-------------------------------|-------------------------------|
A|-------------------------------|-------------------------------|
E|-------------------------------|-------------------------------|
      The     oxygen                  is      plenty  


  B               Bsus4           Asus4
e|----2-- ------- 0------ ----0--|----0-- ------- 0------ ----0--|
B|--------4-----------4----------|--------2-----------2----------|
G|4-----------4-----------4------|------------2-----------2------|
D|-------------------------------|0------------------------------|
A|-------------------------------|-------------------------------|
E|-------------------------------|-------------------------------|
      don't   touch   that    dial.
                                                     (That    dial)

  E6add9                          Aadd9
e|----0-- ------- 0------ ----0--|----0-- ------- 0------ ----0--|
B|--------2-----------2----------|--------2-----------2----------|
G|------------1-----------1------|------------2-----------2------|
D|-------------------------------|-------------------------------|
A|-------------------------------|2------------------------------|
E|2------------------------------|-------------------------------|




e|----0-- ------- ----0-- -------|----0-- ------- ----0-- -------|
B|--------4---3-----------3------|--------0---------------0------|
G|4-----------4------------------|----------------------------0--|
D|----------------------------5--|6-----------7------------------|
A|-------------------------------|-------------------------------|
E|-------------------------------|-------------------------------|




e|------- ------- ------- -------|------- ------- ------- -------|
B|----7---------------8----------|----9---------------10---------|
G|--------8---7-----------7---0--|------------------------9---0--|
D|9-----------9------------------|9-------9---11-----------------|
A|-------------------------------|-------------------------------|
E|-------------------------------|-------------------------------|
  B               G               E               A
e|------- ------- ------- -------|------- ------- ------- -------|
B|7---------------8--------------|9--------------10--------------|
G|8---------------7--------------|9---------------9--------------|
D|9---------------9--------------|9--------------11--------------|
A|-------------------------------|-------------------------------|
E|-------------------------------|-------------------------------|
 


          B               G               E               A
e|------- 7------ ------- 7------|------- 7------ ------- 9------|
B|--------7---------------8------|--------9--------------10------|
G|--------8---------------7------|--------9---------------9------|
D|--------9---------------9------|--------9--------------11------|
A|--------9--------------10------|--------7--------------12------|
E|--------7----------------------|-------------------------------|
                  I                                thought I could make             
 (I)

          B               E               A               F#
e|------- 7------ ------- 7------|------- 9------ ------- 9---9--|
B|--------7---------------9------|-------10--------------11--11--|
G|--------8---------------9------|--------9--------------11--11--|
D|--------9---------------9------|-------11--------------11--11--|
A|--------9---------------7------|-------12---------------9---9--|
E|--------7----------------------|-------------------------------|
     it,  but only        with you.    


      B           G               E           A
e|----7-- ------- 7------ -------|7------ ----5-- ------- 5------|
B|----7-----------8--------------|9-----------5-----------5------|
G|----8-----------7--------------|9-----------6-----------6------|
D|----9-----------9--------------|9-----------7-----------7------|
A|----9----------10--------------|7-----------7-----------7------|
E|----7--------------------------|------------5-----------5------|
                  I                               wished I could bake               
 (I)

      B           E               A                   F#
e|----7-- ------- 7------ -------|9------ ----9-- ----9-- -------|
B|----7-----------9--------------10----------10------11----------|
G|----8-----------9--------------|9-----------9------11----------|
D|----9-----------9--------------11----------11------11----------|
A|----9-----------7--------------12----------12-------9----------|
E|----7--------------------------|-------------------------------|
      it      if  only    I could.  



  B               Bsus2           E6add9
e|----2-- ------- 0------ ----0--|----0-- ------- 0------ -------|
B|--------4-----------4----------|--------2-----------2-------4--|
G|4-----------4-----------4------|4-----------4-----------4------|
D|-------------------------------|-------------------------------|
A|-------------------------------|-------------------------------|
E|-------------------------------|-------------------------------|
      The     D       N       A       is      pretty  


  B               Bsus2           E6add9
e|----2-- ------- 0------ ----0--|----0-- ------- 0------ -------|
B|--------4-----------4----------|--------2-----------2-------4--|
G|4-----------4-----------4------|4-----------4-----------4------|
D|-------------------------------|-------------------------------|
A|-------------------------------|-------------------------------|
E|-------------------------------|-------------------------------|
      you     know    it      makes   her     smile.


  B               Bsus2           E6add9
e|----2-- ------- 0------ ----0--|----0-- ------- 0------ -------|
B|--------4-----------4----------|--------2-----------2-------4--|
G|4-----------4-----------4------|4-----------4-----------4------|
D|-------------------------------|-------------------------------|
A|-------------------------------|-------------------------------|
E|-------------------------------|-------------------------------|
      The     jellyhead               is      singing  


  B               Bsus2           Asus4
e|----2-- ------- 0------ ----0--|----0-- ------- 0------ ----0--|
B|--------4-----------4----------|--------2-----------2----------|
G|4-----------4-----------4------|------------2-----------2------|
D|-------------------------------|0------------------------------|
A|-------------------------------|-------------------------------|
E|-------------------------------|-------------------------------|
      don't   ask     her     why
                                                    

  E6add9                          Aadd9
e|----0-- ------- 0------ ----0--|----0-- ------- 0------ ----0--|
B|--------2-----------2----------|--------2-----------2----------|
G|------------1-----------1------|------------2-----------2------|
D|-------------------------------|-------------------------------|
A|-------------------------------|2------------------------------|
E|2------------------------------|-------------------------------|  



e|----0-- -------|
B|--------2------|
G|------------2--|
D|---------------|
A|2--------------|
E|---------------|



                  C                               D7
e|--------------- 8-\------------|--------------- 7---\----------|
B|----------------8-\------------|----------------7---\----------|
G|----------------9-\------------|----------------5---\----------|
D|---------------10-\------------|----------------7---\----------|
A|---------------10-\------------|----------------5---\----------|
E|----------------8-\------------|-------------------------------|


                                                  C
e|--------------- ---------------|--------------- 8--\-----------|
B|-------------------------------|----------------8--\-----------|
G|---------------------8---------|----------------9--\-----------|
D|---------------------8H10P8----|---------------10--\-----------|
A|----------------------------10-|---------------10--\-----------|
E|----------------8/10-----------|----------------8--\-----------|


  F                               C
e|--------------- 5--------------|--------------- 3--------------|
B|----------6----------6---------|----------5-----------5--------|
G|-----5--------------------5----|-----5---------------------5---|
D|7------------------------------|5------------------------------|
A|-------------------------------|-------------------------------|
E|-------------------------------|-------------------------------|


  Db                              Aadd9
e|--------------- 4--------------|--------------- 0--------------|
B|----------6----------6---------|----------0-----------0--------|
G|-----6--------------------6----|-----6---------------------6---|
D|6------------------------------|7------------------------------|
A|-------------------------------|-------------------------------|
E|-------------------------------|-------------------------------|



  Bmaj7                                X    X
e|-----2--------- --------------- ---------------|
B|----------0------------------------------------|
G|3---------------3------------------------------|
D|-----------------------------------------------|
A|-----------------------------------------------|
E|-----------------------------------------------|




e|----0-- ------- ----0-- -------|----0-- ------- ----0-- -------|
B|--------4---3-----------3------|--------0---------------0------|
G|4-----------4------------------|----------------------------0--|
D|----------------------------5--|6-----------7------------------|
A|-------------------------------|-------------------------------|
E|-------------------------------|-------------------------------|



[ Tab from: http://www.guitartabs.cc/tabs/w/wondermints/proto_pretty_tab.html ]
e|------- ------- ------- -------|------- ------- ------- -------|
B|----7---------------8----------|----9---------------10---------|
G|--------8---7-----------7---0--|------------------------9---0--|
D|9-----------9------------------|9-------9---11-----------------|
A|-------------------------------|-------------------------------|
E|-------------------------------|-------------------------------|
  B               G               E               A
e|------- ------- ------- -------|------- ------- ------- -------|
B|7---------------8--------------|9--------------10--------------|
G|8---------------7--------------|9---------------9--------------|
D|9---------------9--------------|9--------------11--------------|
A|-------------------------------|-------------------------------|
E|-------------------------------|-------------------------------|



          B               G               E               A
e|------- 7------ ------- 7---7--|------- 7------ ------- 5------|
B|--------7---------------8---8--|--------9---------------5------|
G|--------8---------------7---7--|--------9---------------6------|
D|--------9---------------9---9--|--------9---------------7------|
A|--------9--------------10--10--|--------7---------------7------|
E|--------7----------------------|------------------------5------|
                  I                               wanted to   give
 (I)

          B               G               E               A
e|------- 7------ ------- 7---7--|------- 7------ ------- 5---5--|
B|--------7---------------8---8--|--------9---------------5---5--|
G|--------8---------------7---7--|--------9---------------6---6--|
D|--------9---------------9---9--|--------9---------------7---7--|
A|--------9--------------10--10--|--------7---------------7---7--|
E|--------7----------------------|------------------------5---5--|
      my          soul    to  you.


      B           G               E           A
e|----7-- ------- 7------ -------|7---7-- ----5-- ------- 5------|
B|----7-----------8--------------|9---9-------5-----------5------|
G|----8-----------7--------------|9---9-------6-----------6------|
D|----9-----------9--------------|9---9-------7-----------7------|
A|----9----------10--------------|7---7-------7-----------7------|
E|----7--------------------------|------------5-----------5------|
                  I                               thought I could feel
 (I)

      B           E7              A                   F#
e|----7-- ------- 7------ -------|9------ ----9-- ----9-- -------|
B|----7-----------9--------------10----------10------11----------|
G|----8-----------7--------------|9-----------9------11----------|
D|----9-----------9--------------11----------11------11----------|
A|----9-----------7--------------12----------12-------9----------|
E|----7--------------------------|-------------------------------|
      you     pulling     me  through.



  B               Bsus2           E6add9
e|----2-- ------- 0------ ----0--|----0-- ------- 0------ -------|
B|--------4-----------4----------|--------2-----------2-------4--|
G|4-----------4-----------4------|4-----------4-----------4------|
D|-------------------------------|-------------------------------|
A|-------------------------------|-------------------------------|
E|-------------------------------|-------------------------------|
      The     D       N       A       is      pretty  


  B               Bsus2           E6add9
e|----2-- ------- 0------ ----0--|----0-- ------- 0------ -------|
B|--------4-----------4----------|--------2-----------2-------4--|
G|4-----------4-----------4------|4-----------4-----------4------|
D|-------------------------------|-------------------------------|
A|-------------------------------|-------------------------------|
E|-------------------------------|-------------------------------|
      you     know    it      makes   me      smile.


  B               Bsus2           E6add9
e|----2-- ------- 0------ ----0--|----0-- ------- 0------ -------|
B|--------4-----------4----------|--------2-----------2-------4--|
G|4-----------4-----------4------|4-----------4-----------4------|
D|-------------------------------|-------------------------------|
A|-------------------------------|-------------------------------|
E|-------------------------------|-------------------------------|
      The     oxygen                  is      plenty  


  B               Bsus2           Asus4
e|----2-- ------- 0------ ----0--|----0-- ------- 0------ ----0--|
B|--------4-----------4----------|--------2-----------2----------|
G|4-----------4-----------4------|------------2-----------2------|
D|-------------------------------|0------------------------------|
A|-------------------------------|-------------------------------|
E|-------------------------------|-------------------------------|
      don't   touch   that    dial.
                                                     (That    dial)


  E6add9
e|----0-- ------- 0------ ----0--|
B|--------2-----------2----------|
G|------------1-----------1------|
D|-------------------------------|
A|-------------------------------|
E|2------------------------------|



  B               Bsus2           E6add9
e|----2-- ------- 0------ ----0--|----0-- ------- 0------ -------|
B|--------4-----------4----------|--------2-----------2-------4--|
G|4-----------4-----------4------|4-----------4-----------4------|
D|-------------------------------|-------------------------------|
A|-------------------------------|-------------------------------|
E|-------------------------------|-------------------------------|
      The     D       N       A       is      pretty  


  B               Bsus2           E6add9
e|----2-- ------- 0------ ----0--|----0-- ------- 0------ -------|
B|--------4-----------4----------|--------2-----------2-------4--|
G|4-----------4-----------4------|4-----------4-----------4------|
D|-------------------------------|-------------------------------|
A|-------------------------------|-------------------------------|
E|-------------------------------|-------------------------------|
      you     know    it      makes   her     smile.


  B               Bsus2           E6add9
e|----2-- ------- 0------ ----0--|----0-- ------- 0------ -------|
B|--------4-----------4----------|--------2-----------2-------4--|
G|4-----------4-----------4------|4-----------4-----------4------|
D|-------------------------------|-------------------------------|
A|-------------------------------|-------------------------------|
E|-------------------------------|-------------------------------|
      The     jellyhead               is      singing  


  B               Bsus2           Asus4
e|----2-- ------- 0------ ----0--|----0-- ------- 0------ ----0--|
B|--------4-----------4----------|--------2-----------2----------|
G|4-----------4-----------4------|------------2-----------2------|
D|-------------------------------|0------------------------------|
A|-------------------------------|-------------------------------|
E|-------------------------------|-------------------------------|
      don't   ask     her     why
                                                     

  B               Bsus2           E6add9
e|----2-- ------- 0------ ----0--|----0-- ------- 0------ -------|
B|--------4-----------4----------|--------2-----------2-------4--|
G|4-----------4-----------4------|4-----------4-----------4------|
D|-------------------------------|-------------------------------|
A|-------------------------------|-------------------------------|
E|-------------------------------|-------------------------------|
      The     D       N       A       is      pretty  


  B               Bsus2           E6add9
e|----2-- ------- 0------ ----0--|----0-- ------- 0------ -------|
B|--------4-----------4----------|--------2-----------2-------4--|
G|4-----------4-----------4------|4-----------4-----------4------|
D|-------------------------------|-------------------------------|
A|-------------------------------|-------------------------------|
E|-------------------------------|-------------------------------|
      you     know    it      makes   her     smile.


  B               Bsus2           E6add9
e|----2-- ------- 0------ ----0--|----0-- ------- 0------ -------|
B|--------4-----------4----------|--------2-----------2-------4--|
G|4-----------4-----------4------|4-----------4-----------4------|
D|-------------------------------|-------------------------------|
A|-------------------------------|-------------------------------|
E|-------------------------------|-------------------------------|
      The     trilobite               is      swimming 


  B               Bsus2           Asus4
e|----2-- ------- 0------ ----0--|----0-- ------- 0------ ----0--|
B|--------4-----------4----------|--------2-----------2----------|
G|4-----------4-----------4------|------------2-----------2------|
D|-------------------------------|0------------------------------|
A|-------------------------------|-------------------------------|
E|-------------------------------|-------------------------------|
      inside          our     mind.
                                                     



e|----0-- ------- ----0-- -------|----0-- ------- ----0-- -------| 
B|--------4---3-----------3------|--------0---------------0------|
G|4-----------4------------------|----------------------------0--|
D|----------------------------5--|6-----------7------------------|
A|-------------------------------|-------------------------------|
E|-------------------------------|-------------------------------|
  B               G               E               A
e|------- ------- ------- -------|------- ------- ------- -------|
B|7---------------8--------------|9--------------10--------------|
G|8---------------7--------------|9---------------9--------------|
D|9---------------9--------------|9--------------11--------------|
A|-------------------------------|-------------------------------|
E|-------------------------------|-------------------------------|





e|------- ------- ------- -------|------- ------- ------- -------|
B|----7---------------8----------|----9---------------10---------|
G|--------8---7-----------7---0--|------------------------9---0--|
D|9-----------9------------------|9-------9---11-----------------|
A|-------------------------------|-------------------------------|
E|-------------------------------|-------------------------------| 
  B               G               E               A
e|------- ------- ------- -------|------- ------- ------- -------|
B|7---------------8--------------|9--------------10--------------|
G|8---------------7--------------|9---------------9--------------|
D|9---------------9--------------|9--------------11--------------|
A|-------------------------------|-------------------------------|
E|-------------------------------|-------------------------------|




          B               G               E               A
e|------- 7------ ------- 7------|------- 7------ ------- 9------|
B|--------7---------------8------|--------9--------------10------|
G|--------8---------------7------|--------9---------------9------|
D|--------9---------------9------|--------9--------------11------|
A|--------9--------------10------|--------7--------------12------|
E|--------7----------------------|-------------------------------|
                  I                               Proto       pretty     
 (I)
e|----2-- ------- ----3-- -------|----0-- ------- ----0-- -------|
B|--------4---------------3------|--------0---------------0------|
G|------------4---------------4--|1-----------1-H-2-----------2--|
D|-------------------------------|-------------------------------|
A|-------------------------------|-------------------------------|
E|-------------------------------|-------------------------------|



          B               G               E               A
e|------- 7------ ------- 7------|------- 7------ ------- 9------|
B|--------7---------------8------|--------9--------------10------|
G|--------8---------------7------|--------9---------------9------|
D|--------9---------------9------|--------9--------------11------|
A|--------9--------------10------|--------7--------------12------|
E|--------7----------------------|-------------------------------|

                                     (Don't  touch    that    dial)
e|----2-- ------- ----3-- -------|----4-- ------- ----0-- -------|
B|--------4---------------3------|--------5---------------0------|
G|------------4---------------4--|------------4------------------|
D|-------------------------------|6---------------7-----------7--|
A|-------------------------------|-------------------------------|
E|-------------------------------|-------------------------------|



      B           G               E           A
e|----7-- ------- 7------ -------|7---7-- ----9-- ------- 9------|
B|----7-----------8--------------|9---9------10----------10------|
G|----8-----------7--------------|9---9-------9-----------9------|
D|----9-----------9--------------|9---9------11----------11------|
A|----9----------10--------------|7---7------12----------12------|
E|----7--------------------------|-------------------------------|
                  I                               Proto       pretty
e|----2-- ------- ----3-- -------|----0-- ------- ----0-- -------|
B|--------4---------------3------|--------0---------------0------|
G|------------4---------------4--|1-----------1-H-2-----------2--|
D|-------------------------------|-------------------------------|
A|-------------------------------|-------------------------------|
E|-------------------------------|-------------------------------|



      B           G               E           A
e|----7-- ------- 7------ -------|7---7-- ----9-- ------- 9------|
B|----7-----------8--------------|9---9------10----------10------|
G|----8-----------7--------------|9---9-------9-----------9------|
D|----9-----------9--------------|9---9------11----------11------|
A|----9----------10--------------|7---7------12----------12------|
E|----7--------------------------|-------------------------------|
      
                                     (Don't   touch   that    dial)
e|----2-- ------- ----3-- -------|----4-- ------- ----0-- -------|
B|--------4---------------3------|--------5---------------0------|
G|------------4---------------4--|------------4------------------|
D|-------------------------------|6---------------7-----------7--|
A|-------------------------------|-------------------------------|
E|-------------------------------|-------------------------------|




      B           G               E           A
e|----7-- ------- 7------ -------|7---7-- ----9-- ------- 9------|
B|----7-----------8--------------|9---9------10----------10------|
G|----8-----------7--------------|9---9-------9-----------9------|
D|----9-----------9--------------|9---9------11----------11------|
A|----9----------10--------------|7---7------12----------12------|
E|----7--------------------------|-------------------------------|
                  I                               Proto       pretty
e|----2-- ------- ----3-- -------|----0-- ------- ----0-- -------|
B|--------4---------------3------|--------0---------------0------|
G|------------4---------------4--|1-----------1-H-2-----------2--|
D|-------------------------------|-------------------------------|
A|-------------------------------|-------------------------------|
E|-------------------------------|-------------------------------|


     

      B           G               E           A
e|----7-- ------- 7------ -------|7---7-- ----9-- ------- 9------|
B|----7-----------8--------------|9---9------10----------10------|
G|----8-----------7--------------|9---9-------9-----------9------|
D|----9-----------9--------------|9---9------11----------11------|
A|----9----------10--------------|7---7------12----------12------|
E|----7--------------------------|-------------------------------|

                                     (Don't  touch    that)
e|----2-- ------- ----3-- -------|----4-- ------- ----0-- -------|
B|--------4---------------3------|--------5---------------0------|
G|------------4---------------4--|------------4------------------|
D|-------------------------------|6---------------7-----------7--|
A|-------------------------------|-------------------------------|
E|-------------------------------|-------------------------------|





e|----0-- ------- ----0-- -------|----0-- ------- ----0-- -------|
B|--------4---3-----------3------|--------0---------------0------|
G|4-----------4------------------|-------------------------------|
D|----------------------------5--|6-----------7---------------6--|
A|-------------------------------|-------------------------------|
E|-------------------------------|-------------------------------|



e|------- ------- ------- -------|------- ------- ------- -------|
B|----7---------------8----------|----9-----------10---------10--|
G|--------8---7-----------7---0--|--------------------9----------|
D|9-----------9------------------|9-------9---11---------11------|
A|-------------------------------|-------------------------------|
E|-------------------------------|-------------------------------|

 (.
  B
e|7------ ------- ------- -------|------- ------- ------- -------|
B|7------------------------------|-------------------------------|
G|8------------------------------|-------------------------------|
D|9------------------------------|-------------------------------|
A|9------------------------------|-------------------------------|
E|7------------------------------|-------------------------------|







        B  Bend
        R  Release
        /  slide up
        \  slide down
        H  hammer-on
        P  pull-off
        ~  vibrato
        +  harmonic
        x  Mute note
        . - play note like a dot in standard notation
        ^ - ties two notes together
        (. Pause


Comments