Won Ton Soup - I Got Punked By A Ten Year Old Chords & Tabs

 

I Got Punked By A Ten Year Old Chords & Tabs

Won Ton Soup Chords & Tabs

Version: 1 Type: Bass Tab 0 ratings
1 star 2 stars 3 stars 4 stars 5 stars
comments

I Got Punked By A Ten Year Old Bass Tab

 i got punked by a ten year old - Won son soup
      verse
G|----------------------------------------------------------
D|7-7-7---9-9-9--7---7--------------------------------------
A|------7----------5----------------------------------------
E|----------------------------------------------------------
       chorus
G|----------------------------------------------------------
D|----------------------------------------------------------
A|3-(8x)--------3-(8x)--------------------------------------
E|-------3-(8x)--------3-(8x)-5-(8x)--3(8x)--7-(16x)--------
[ Tab from: http://www.guitartabs.cc/tabs/w/won_ton_soup/i_got_punked_by_a_ten_year_old_btab.html ]
Comments