Wolfmother - White Unicorn Chords & Tabs

 

White Unicorn Chords & Tabs

Wolfmother Chords & Tabs

Version: 1 Type: Tab 0 ratings
1 star 2 stars 3 stars 4 stars 5 stars
comments

White Unicorn Tab

-----------------------------------------------------------------------------
			     The white unicorn - Wolfmother
-----------------------------------------------------------------------------
Tabbed by: Lukey D (is sexy)
Email: Dwyer6@hotmail.com
[ Tab from: http://www.guitartabs.cc/tabs/w/wolfmother/white_unicorn_tab.html ]
Tuning: Drop D
Intro/verse
e|------14-14-14----12-12-12----7--9----2-2-2-------------------------------|
B|------15-15-15----13-13-13----8--10---3-3-3-------------------------------|
G|------14-14-14----12-12-12----7--9----2-2-2-------------------------------|
D|--------------------------------------------------------------------------|
A|--------------------------------------------------------------------------|
D|--------------------------------------------------------------------------|
chorus
e|--------------------------------------------------------------------------|
B|--------------------------------------------------------------------------|
G|--------------------------------------------------------------------------|
D|-----3--5---5--8---3-3-3-5------------------------------------------------|
A|-----3--5---5--8---3-3-3-5------------------------------------------------|
D|-----3--5---5--8---3-3-3-5------------------------------------------------|
"we could live together"
e|--------------------------------------------------------------------------|
B|--------------------------------------------------------------------------|
G|--------------------------------------------------------------------------|
D|-----3--------------------------------------------------------------------|
A|-----3-x16----------------------------------------------------------------|
D|-----3--------------------------------------------------------------------|
on the last note slide up to fret 12 and go back to main riff

During the interlude play around with the chord in the intro/verse

=============================================================================
Comments