Wolfmother - Minds Eye Chords & Tabs

 

Minds Eye Chords & Tabs

Wolfmother Chords & Tabs

Version: 1 Type: Tab 0 ratings
1 star 2 stars 3 stars 4 stars 5 stars
comments

Minds Eye Tab

ok this is my first tab. i hope u enjoy



PAUL EGGINS egghouse

Intro
0:12 - 0:40

                                                    [play twice first time] 
e|---------------------------------------------------------------------------|
B|----17----17----17----17----17----17----17----17-[---17---17---17----17-]--|
G|-17----17----17----17----16----16----16----16----[14----14---14---14----]--|
D|---------------------------------------------------------------------------| x2
A|---------------------------------------------------------------------------|
E|---------------------------------------------------------------------------|


Verse
0:40 - 1:33
e|---------------------------------------------------------------------------|
B|---------------------------------------------------------------------------|
G|---------------------------------------------------------------------------|
D|-7~-------5~--------3~-----------------------------------------------------| x3
A|-7~-------5~--------3~-----------------------------------------------------|
E|-5~-------3~--------1~-----------------------------------------------------|

e|---------------------------------------------------------------------------|
B|---------------------------------------------------------------------------|
G|----------------------------------7-9-12-----------------------------------|
D|-7--------5---------3--5--7--9-10-7-9-12-----------------------------------|
A|-7--------5---------3--5--7--9-10-5-7-10-----------------------------------|
E|-5--------3---------1--3--5--7-8-------------------------------------------|


Chorus
1:34 - 1:47
e|---------------------------------------------------------------------------|
B|---------------------------------------------------------------------------|
G|-14--------12-----------------------7-9-12---------------------------------|
D|-14--------12---------3--5--7--9-10-7-9-12---------------------------------|
A|-12--------10---------3--5--7--9-10-5-7-10---------------------------------|
E|----------------------1--3--5--7-8-----------------------------------------|

1:48 - 1:49
e|---------------------------------------------------------------------------|
B|---------------------------------------------------------------------------|
G|-2-------------------------------------------------------------------------|
D|-2-------------------------------------------------------------------------|
A|-0-------------------------------------------------------------------------|
E|---------------------------------------------------------------------------|
1:48 - 2:14
e|---------------------------------------------------------------------------|
B|---------------------------------------------------------------------------|
G|--7-5------7-2-------------------------------------------------------------|
D|--7-5------7-2-------------------------------------------------------------| x5
A|--5-3------5-0-------------------------------------------------------------|
E|---------------------------------------------------------------------------|

2:15 - 2:49
e|---------------------------------------------------------------------------|
B|---------------------------------------------------------------------------|
G|---------------------------------------------------------------------------|
D|-7~-------5~--------3~-----------------------------------------------------| x3
A|-7~-------5~--------3~-----------------------------------------------------|
E|-5~-------3~--------1~-----------------------------------------------------|
[ Tab from: http://www.guitartabs.cc/tabs/w/wolfmother/minds_eye_tab.html ]
e|---------------------------------------------------------------------------|
B|---------------------------------------------------------------------------|
G|----------------------------------7-9-12-----------------------------------|
D|-7--------5---------3--5--7--9-10-7-9-12-----------------------------------|
A|-7--------5---------3--5--7--9-10-5-7-10-----------------------------------|
E|-5--------3---------1--3--5--7-8-------------------------------------------|


2:50 - 2:51
e|---------------------------------------------------------------------------|
B|---------------------------------------------------------------------------|
G|-2-------------------------------------------------------------------------|
D|-2-------------------------------------------------------------------------|
A|-0-------------------------------------------------------------------------|
E|---------------------------------------------------------------------------|
2:52 - 3:10
e|---------------------------------------------------------------------------|
B|---------------------------------------------------------------------------|
G|--7-5------7-2-------------------------------------------------------------|
D|--7-5------7-2-------------------------------------------------------------| x4
A|--5-3------5-0-------------------------------------------------------------|
E|---------------------------------------------------------------------------|

3:11 - 3:15
e|---------------------------------------------------------------------------|
B|---------------------------------------------------------------------------|
G|------------------------7-9-12-2-------------------------------------------|
D|----------3--5--7--9-10-7-9-12-2-------------------------------------------|
A|----------3--5--7--9-10-5-7-10-0-------------------------------------------|
E|----------1--3--5--7-8-----------------------------------------------------|

3:15 --> (Keyboard)
3:22 --> (bass)

3:28
e|---------------------------------------------------------------------------|
B|---------------------------------------------------------------------------|
G|-2~------------------------------------------------------------------------|
D|-2~------------------------------------------------------------------------|
A|-0~------------------------------------------------------------------------|
E|---------------------------------------------------------------------------|

3:29 - 4:06 Let ring after 2nd time
e|---------------------------------------------------------------------------|
B|---------------------------------------------------------------------------|
G|--7-5-----/7-2-------------------------------------------------------------|
D|--7-5-----/7-2-------------------------------------------------------------| x many
A|--5-3-----/5-0-------------------------------------------------------------|
E|---------------------------------------------------------------------------|

4:06 - 4:33
e|---------------------------------------------------------------------------|
B|---------------------------------------------------------------------------|
G|-7~------7~------------------------7-5----7-2------------------------------|
D|-7~------7~-----7-7-7-7-5-5-7~-----7-5----7-2--x6--------------------------|
A|-3~------5~-----7-7-7-7-5-5-7~-----5-3----5-0------------------------------|
E|----------------5-5-5-5-3-3-5~---------------------------------------------|


4:34 --> End
e|---------------------------------------------------------------------------|
B|---------------------------------------------------------------------------|
G|------------------------7-9-12-14~-----------------------------------------|
D|----------3--5--7--9-10-7-9-12-14~--(let ring out)-------------------------|
A|----------3--5--7--9-10-5-7-10-12~-----------------------------------------|
E|----------1--3--5--7-8-----------------------------------------------------|

Comments