Wolfmother - Dimension Chords & Tabs

 

Dimension Chords & Tabs

Wolfmother Chords & Tabs

Version: 3 Type: Tab

Dimension Tab

Song – Dimension
Band – Wolfmother
Tabbed by Cal aka PJamman66

Key - P = part

Intro (this is what the guitar would play if it were playing the bass riff)
E---------------------------|
B---------------------------|
G---------------------------|
D---------------------------|
A-------------------------5-|
E----5-5-5-5-5-5-5-5-5-7----|

Verse Riff 1 (Just work out when you play it, easy to do, just listen to the song)
E-----------------|---------------|
B-----------------|---------------|
G-----------------|---------------|
D----7---9----5---|--7----5-------|
A----7---9----5---|--7----5-------|
E----5---7----3---|--5----3-------|

During the verse
This is played after ‘I had to write something down’
E---------------------|
B---------------------|
G--7-6-5--------------|
D---------7-6-5-------|
A-----------------7---|
E---------------------|

Chorus – P 1
E--------------------------------------------------|
B--------------------------------------------------|
G--7-6-5---------------------------------------5-7-|
D----------7-6-5------------------------5-6-7------|
A------------------7-6-5---------5-6-7-------------|
E---------------------------7-5-7------------------|

P 2
E--------------------------|-----------------------|
B--------------------------|-----------------------|
G-7-5----------------------|-------------------5-7-|
D------7-6-5---------------|-------------5-6-7-----|
A-------------7-6-5--------|------5-6-7------------|
E---------------------7-5--|-5-7-------------------|



Verse Riff 2
E------------|--------------|
B------------|--------------|
G------------|----7------5--|
D---7-----9--|----7------5--|
A---7-----9--|----5------3--| X3
E---5-----7--|--------------|
[ Tab from: http://www.guitartabs.cc/tabs/w/wolfmother/dimension_tab_ver_3.html ]
E---------------------|
B---------------------|
G---------------------|
D--9-9-------7-7------|
A--9-9-----5-7-7---5--|
E--7-7-5-7---5-5-7----|

Then play
Verse Riff 1
Next is
E---------------------------|
B---------------------------|
G---9-7---------------------|
D--------9-8-7--------------|
A---------------9-8-7-------|
E-----------------------9---|


Then the Chorus P1, then P3 (below riff)
E-----------------------------|
B-----------------------------|
G---9-7-----------------------|
D--------9-8-7----------------|
A---------------9-8-7---------|
E-----------------------9-7---|

Verse Riff 3
E--------------------------------|
B--------------------------------|
G--------------------------------|
D----7-7-7-7-7-7-7-7-9-9-9-9-9-9-|
A----7-7-7-7-7-7-7-7-9-9-9-9-9-9-|
E----5-5-5-5-5-5-5-5-7-7-7-7-7-7-|


Then Verse Riff 4
E----------------------------------------|
B----------------------------------------|
G----------7-7-7-7-7-7-7-5-5-5-5-5-5-5-5-|
D----5----7-7-7-7-7-7-7-5-5-5-5-5-5-5-5--|
A----5----5-5-5-5-5-5-5-3-3-3-3-3-3-3-3--|
E----7-----------------------------------|

Chorus next, play parts 1,2,3 then 4.
E-----------------------------------|
B-----------------------------------|
G---11-9----------------------------|
D----------11-10-9------------------|
A--------------------11-10-9--------|
E------------------------------11---|

Outro
E--------------------------|
B--------------------------|
G--------------------------|
D----7-7-7-7-7-7-7-7-7-----| X2
A----7-7-7-7-7-7-7-7-7--5--|
E----5-5-5-5-5-5-5-5-5-7---|
2nd time this is played quieter than the first and by itself.

OK that’s all from me. Wolfmother are great Aussie rockers. If you need anything my 
is im_still_alive6@hotmail.com. Rock on.