Wolfmother - Dimension Chords & Tabs

 

Dimension Chords & Tabs

Wolfmother Chords & Tabs

Version: 1 Type: Bass Tab 0 ratings
1 star 2 stars 3 stars 4 stars 5 stars
comments

Dimension Bass Tab

----------------------------------PLEASE NOTE---------------------------------
This file is the author's own work and represents their interpretation of the
song. You may only use this file for private study, scholarship, or research.
------------------------------------------------------------------------------
[ Tab from: http://www.guitartabs.cc/tabs/w/wolfmother/dimension_btab.html ]
"I fell down in the desert baby"..
G ------------------------|
D ------------------------|
A ----------------5-------|
E 0-0-0-0-0-0-5-7---------|

"I had to write something down"..
G -------------------------|
D ----------7-5------------|
A --------------7-5--------|
E 0-0-0-0-0---------7-5----|

"..Into another dimension"..
G ------------5-5-75-----------|
D ---3-4-5-6-7------7-6-5-4-3--|
A 3-5------------------------5-|
E -----------------------------|

brilliant easy song, the "i had to write something down" bit can also be done using hammer-ons
Comments