Wolfmother - Colossal Chords & Tabs

 

Colossal Chords & Tabs

Wolfmother Chords & Tabs

Version: 4 Type: Tab

Colossal Tab

   
Wolfmotheer, Colossal
tune your guitar to drop D            h=hammer on p=pull off ~=let it ring

intro

E|-------------------------------------------|
B|-------------------------------------------|
G|--------5----------7----------5------7p5---|
D|----5h7--------5h7--------5h7------------7-|
A|-------------------------------------------|
D|-0----------0----------0----------0--------|

riff 1

E|------------------------------------------------|
B|--------------------------------12b13-12-10-----|
G|--------5---------7--------5h7--12b14-12-10-11--|
D|----5h7-------5h7------5h7-------------------12-|
A|------------------------------------------------|
D|-0----------0---------0-------------------------|

riff 2
   D                  C
E|----------------------|
B|----------------------|
G|-7-7--7-7--7-7--7-7-5-|
D|-7-7--7-7--7-7--7-7-5-|
A|-5-5--5-5--5-5--5-5-3-|
D|-0-0--0-0--0-0--0-0---|

chorus
   A        C
E|---------------------------|
B|---------------------------|
G|---------------------------|
D|-77777777-1010101010101010-|
A|-77777777-1010101010101010-|
D|-77777777-1010101010101010-|

riff 3
   D   G#G  C# C   D#D  C
E|-------------------------|
B|-------------------------|
G|-------------------------|
D|-12--6-5--11-10--1-0--10-|
A|-12--6-5--11-10--1-0--10-|
D|-12--6-5--11-10--1-0--10-|

riff 4
   A                  C
E|-----------------------|
B|-----------------------|
G|-----------------------|
D|-7-7--7-7--7-7--7-7-10-|
A|-7-7--7-7--7-7--7-7-10-|
D|-7-7--7-7--7-7--7-7-10-|

riff 5
   C D                             f
E|---------------------------------------|
B|---------------------------------------|
G|---------------------------------------|
D|---------------------------------3-3-3-|
A|-3-55555-3-55555-3-55555-3-55555-------|
D|---------------------------------------|
[ Tab from: http://www.guitartabs.cc/tabs/w/wolfmother/colossal_tab_ver_4.html ]
   C D                             G G#A
E|---------------------------------------|
B|---------------------------------------|
G|---------------------------------------|
D|---------------------------------5-6-7-|
A|-3-55555-3-55555-3-55555-3-55555-5-6-7-|
D|---------------------------------5-6-7-|

riff 6
   C  D                                                    f
E|----------------------------------------------------------------|
B|----------------------------------------------------------------|
G|---------------------------------------------------------101010-|
D|-10-1212121212-10-1212121212-10-1212121212-10-1212121212-101010-|
A|-10-1212121212-10-1212121212-10-1212121212-10-1212121212-8-8-8--|
D|-10-1212121212-10-1212121212-10-1212121212-10-1212121212--------|

                                                           G G#A
E|---------------------------------------------------------------|
B|---------------------------------------------------------------|
G|---------------------------------------------------------------|
D|-10-1212121212-10-1212121212-10-1212121212-10-1212121212-5-6-7-|
A|-10-1212121212-10-1212121212-10-1212121212-10-1212121212-5-6-7-|
D|-10-1212121212-10-1212121212-10-1212121212-10-1212121212-5-6-7-|

riff 7
  f      E     D#    D
E|----------------------|
B|----------------------|
G|----------------------|
D|-3-3-3-2-2-2-1-1-1-0~-|
A|-3-3-3-2-2-2-1-1-1-0~-|
D|-3-3-3-2-2-2-1-1-1-0~-|

riff 8
  f       E      D#     D
E|-----------------------------|
B|-----------------------------|
G|-----------------------------|
D|-3~-----2~-----1~-----0~-----|
A|-3~-----2~-----1~-----0~-----|
D|-3~-----2~-----1~-----0~-----|

intro
riff 1
riff 2   5x
chorus
riff 1
chorus
riff 2   5x
chorus
riff 3   5x
riff 4
riff 2   4x
chorus
riff 1
chorus
riff 3   5x
riff 5
riff 6   4x
riff 7   4x
riff 8   4x