Wolfmother - Colossal Chords & Tabs

 

Colossal Chords & Tabs

Wolfmother Chords & Tabs

Version: 1 Type: Tab

Colossal Tab

INTRO:


E|----------------------------------------------------|
B|----------------------------------------------------|
G|---7-------5---7-------7---7-------5---7---7p5------|
D|---7---5h7-----7---5h7-----7---5h7-----7-------7----|
A|---5-----------5-----------5-----------5------------|
E|----------------------------------------------------|

E|----------------------------------------------------|
B|---------------------------------------7b-5b--------|
G|---7-------5---7-------7---7-------5---7b-5b--------|
D|---7---5h7-----7---5h7-----7---5h7------------------|
A|---5-----------5-----------5------------------------|
E|----------------------------------------------------|



VERSE:

E|--------------------------------|
B|--------------------------------|
G|---7-7---7-7---7-7---7-7--5-----|   repeat
D|---7-7---7-7---7-7---7-7--5-----|
A|---5-5---5-5---5-5---5-5--3-----|
E|--------------------------------|


CHORUS:

      The first time I saw, Colossal girl
E|--------------------------------------------|
B|--------------------------------------------|
G|--------------------5-5-5-5-5-5-5-5---------|
D|---7-7-7-7-7-7-7-7--5-5-5-5-5-5-5-5---------|
A|---7-7-7-7-7-7-7-7--3-3-3-3-3-3-3-3---------|
E|---5-5-5-5-5-5-5-5--------------------------|


E|----------------------------------------------------|
B|---------------------------------------7b-5b--------|
G|---7-------5---7-------7---7-------5---7b-5b--------|
D|---7---5h7-----7---5h7-----7---5h7------------------|
A|---5-----------5-----------5------------------------|
E|----------------------------------------------------|


E|--------------------------------------------|
B|--------------------------------------------|
G|--------------------5-5-5-5-5-5-5-5---------|
D|---7-7-7-7-7-7-7-7--5-5-5-5-5-5-5-5---------|
A|---7-7-7-7-7-7-7-7--3-3-3-3-3-3-3-3---------|
E|---5-5-5-5-5-5-5-5--------------------------|



AFTER SECOND AND THIRD CHORUS:

[ Tab from: http://www.guitartabs.cc/tabs/w/wolfmother/colossal_tab.html ]
    Well she’s running to hills again...
E|---------------------------------------|
B|---------------------------------------|
G|---5-7----13-12----6-5----8-7----------|   repeat 4x
D|---5-7----13-12----6-5----8-7----------|
A|---3-5----11-10----4-3----6-5----------|
E|---------------------------------------|


E|---------------------------------------|
B|---------------------------------------|
G|--------------------------5------------| then back to verse
D|---7-7---7-7---7-7---7-7--5------------|
A|---7-7---7-7---7-7---7-7--3------------|
E|---5-5---5-5---5-5---5-5---------------|





SECOND PART OF SONG:

E|--------------------------------------------|
B|--------------------------------------------|
G|--------------------------------------------|
D|--------------------------------------------|
A|---3/5-5555—-3/5-5555-—3/5-5555--7-7-7------|
E|--------------------------------------------|

E|--------------------------------------------|
B|--------------------------------------------|
G|--------------------------------------------|
D|---------------------------------5-6-7------|
A|---3/5-5555—-3/5-5555—-3/5-5555--5-6-7------|
E|---------------------------------3-4-5------|





      Can you remember the first time we met...
E|--------------------------------------------|
B|--------------------------------------------|
G|---5/7-7777—-5/7-7777--5/7-7777--9-9-9------|
D|---5/7-7777—-5/7-7777--5/7-7777--9-9-9------|
A|---3/5-5555—-3/5-5555—-3/5-5555--7-7-7------|
E|--------------------------------------------|


E|--------------------------------------------|
B|--------------------------------------------|
G|---5/7-7777—-5/7-7777--5/7-7777-------------|
D|---5/7-7777—-5/7-7777--5/7-7777--5-6-7------|
A|---3/5-5555—-3/5-5555—-3/5-5555--5-6-7------|
E|---------------------------------3-4-5------|



LAST RIFF:


   I’m just a gypsy with wondering eyes...
E|---------------------------------|
B|---------------------------------|
G|---10-10-10-9-9-9-8-8-8-7--------|
D|---10-10-10-9-9-9-8-8-8-7--------|
A|---8--8--8--7-7-7-6-6-6-5--------|
E|---------------------------------|


E|---------------------------------|
B|---------------------------------|
G|---10-------9-------8------7-----|
D|---10-------9-------8------7-----|
A|---8--------7-------6------5-----|
E|---------------------------------|