Wolfgang Amadeus Mozart - Symphony No 25 Chords & Tabs

 

Symphony No 25 Chords & Tabs

Wolfgang Amadeus Mozart Chords & Tabs

Version: 1 Type: Tab 0 ratings
1 star 2 stars 3 stars 4 stars 5 stars
comments

Symphony No 25 Tab

                            


                                     SYMPHONY No. 25
                                  Wolfgang Amadeus Mozart


E|-3--3----3----3----3--|----------------------|----------------------|----------------------|
B|----------------------|-3--3----3----3----3--|-4--4----4----4----4--|----------------------|
G|-0--0----0----0----0--|----------------------|----------------------|----------------------|
D|----------------------|-0--0----0----0----0--|-1--1----1----1----1--|-4--4----4----4----4--|
A|----------------------|----------------------|----------------------|----------------------|
E|----------------------|----------------------|----------------------|-2--2----2----2----2--|


|----------3--6p5p3s2-3----|----------3--6p5p3s2-3----|----------5--8p6p5---5----|
|-------3------------------|-------3------------------|-------7-----------8------|
|----3---------------------|----3---------------------|----5---------------------|
|-5------------------------|-5------------------------|-7------------------------|
|--------------------------|--------------------------|--------------------------|
|--------------------------|--------------------------|--------------------------|


|----------5--8p6p5---5----|----------6--10p8p6----6----|----------6--10p8p6----6----|
|-------7-----------8------|-------8------------10------|-------8------------10------|
|----5---------------------|----7-----------------------|----7-----------------------|
|-7------------------------|-8--------------------------|-8--------------------------|
|--------------------------|----------------------------|----------------------------|
|--------------------------|----------------------------|----------------------------|


|-8p6p5p---5----6p5p3s2-3----|-2h3-2h3-------------------------|
|--------8-------------------|---------2h3-2h3-----------------|
|----------------------------|-----------------2h3-2h3---------|
|----------------------------|-------------------------4h5-4h5-|
|----------------------------|---------------------------------|
|----------------------------|---------------------------------|

                                             To Coda 
|-------------------------------------|--------------------|
|-------------------------------------|-----------R--------|
|-5--5--5--2--2--2--------------------|-4---------E--------|
|-------------------4--4--4--5--5--5--|------5----S--------|
|-------------------------------------|-----------T--------|
|-------------------------------------|--------------------|


E|-3--3----3----3----3--|----------------------|----------------------|----------------------|
B|----------------------|-3--3----3----3----3--|-4--4----4----4----4--|----------------------|
G|-0--0----0----0----0--|----------------------|----------------------|----------------------|
D|----------------------|-0--0----0----0----0--|-1--1----1----1----1--|-4--4----4----4----4--|
A|----------------------|----------------------|----------------------|----------------------|
E|----------------------|----------------------|----------------------|-2--2----2----2----2--|


|-3----------------|------------------|------------------|------------------|
|------------------|-3----------------|-4----------------|------------------|
|------------------|------------------|------------------|------------------|
|------------------|------------------|------------------|-4----------------|
|------------------|------------------|------------------|------------------|
|------------------|------------------|------------------|------------------|


|------------------|-3----------------|-6----------------|------------------|
|------------------|------------------|------------------|-2----------------|
|------------------|------------------|------------------|------------------|
|------------------|------------------|------------------|------------------|
|-5----------------|------------------|------------------|------------------|
|------------------|------------------|------------------|------------------|


|-----------------------|-----------------------|-------------------|------------------|
|-3------2--3--2--3--2--|-3------2--3--2--3--2--|-3--------3--------|-3----------------|
|-----------------------|-----------------------|-------------------|------------------|
|-----------------------|-----------------------|-------------------|------------------|
|-----------------------|-----------------------|-------------------|------------------|
|-----------------------|-----------------------|-------------------|------------------|


|------------------|-6----------------|-5p3--------------------|-5p3--------------------|
|------------------|------------------|-----6--6--6--6----R----|-----6--6--6--6----R----|
|-3----------------|------------------|-------------------E----|-------------------E----|
|------------------|------------------|-------------------S----|-------------------S----|
|------------------|------------------|-------------------T----|-------------------T----|
|------------------|------------------|------------------------|------------------------|


|------------------|-6----------------|-5p3--------------------|-5p3--------------------|
|------------------|------------------|-----6--6--6--6----R----|-----6--6--6--6----R----|
|-3----------------|------------------|-------------------E----|-------------------E----|
|------------------|------------------|-------------------S----|-------------------S----|
|------------------|------------------|-------------------T----|-------------------T----|
|------------------|------------------|------------------------|------------------------|

8va---------------------------------------------------------------------
                            _____3_____  ____3_____  _____3_____
|-------------------18----|-22-p-18--------------18--22-p-18------------|
|-------------18----------|----------18------18---------------18--------|
|-------19----------------|--------------19-----------------------19----|
|-20----------------------|---------------------------------------------|
|-------------------------|---------------------------------------------|
|-------------------------|---------------------------------------------|

8va----------------------------------------------------------------------
                            _____3_____  ____3_____  _____3_____
|-------------------------|---------------------------------------------|
|-------------------16----|-20-p-16--------------16--20-p-16------------|
|-------------------------|---------------------------------------------|
|-------17----20----------|----------20--17--20---------------20--17----|
|-18----------------------|---------------------------------------------|
|-------------------------|---------------------------------------------|

8va----------------------------------------------------------------------
                            _____3_____  ____3_____  _____3_____
|-------------------17----|-20-p-17--------------17--20-p-17------------|
|-------------16----------|---------------------------------------------|
|-------17----------------|----------20--17--20---------------20--17----|
|-19----------------------|---------------------------------------------|
|-------------------------|---------------------------------------------|
|-------------------------|---------------------------------------------|

bva----------------------------------------------------------------------
                            _____3_____  ____3_____  _____3_____
|-------------------------|---------------------------------------------|
|-------------------15----|-18-p-15--------------15--18-p-15------------|
|-------------15----------|----------15------15---------------15--------|
|-------15----------------|--------------15-----------------------15----|
|-17----------------------|---------------------------------------------|
|-------------------------|---------------------------------------------|

8va----------------------------------------------------------------------
                            _____3_____  ____3_____  _____3_____
|-------------------------|-18-p-15--------------15--18-p-15------------|
|-------------------15----|----------15------15---------------15--------|
|-------------15----------|--------------15-----------------------15----|
|-------15----------------|---------------------------------------------|
|-17----------------------|---------------------------------------------|
|-------------------------|---------------------------------------------|

8va----------------------------------------------------------------------
                            _____3_____  ____3_____  _____3_____
|-------------------------|---------------------------------------------|
|-------------------13----|-16-p-13--------------13--16-p-13------------|
|-------------12----------|---------------------------------------------|
|-------13----------------|----------17--13--17---------------17--13----|
|-15----------------------|---------------------------------------------|
|-------------------------|---------------------------------------------|


|-11--11--8--8--5--5--------|-------------------------|-10--10--6--6--------------|
|---------------------6--6--|-------------------------|---------------6--6--------|
|---------------------------|-8--8--5--5--------------|---------------------7--7--|
|---------------------------|-------------7--7--------|---------------------------|
|---------------------------|-------------------8--8--|---------------------------|
|---------------------------|-------------------------|---------------------------|


|-------------------------|-9--9--6--6--------------|-------------------------|
|-------------------------|-------------6--6--------|-------------------------|
|-------------------------|-------------------6--6--|-------------------------|
|-8--8--------------------|-------------------------|-8--8--------------------|
|-------8--8--5--5--------|-------------------------|-------8--8--4--4--------|
|-------------------6--6--|-------------------------|-------------------6--6--|


|-9--9--6--6--------------|-------------------------|-------------------------|---------------------|
|-------------8--8--5--5--|-------------------------|-------------------------|------6---------R----|
|-------------------------|-6--6--------------------|-------------------------|----------------E----|
|-------------------------|-------8--8--5--5--------|-3--3--4--4--3--3--------|-3---------3----S----|
|-------------------------|-------------------7--7--|-------------------7--7--|----------------T----|
|-------------------------|-------------------------|-------------------------|---------------------|


|-----------------------|-------------------------|
|-----------------------|-3-------3--6-p-4--3-----|
|-3----2--3--5----3--5--|------5---------------5--|
|-----------------------|-------------------------|
|-----------------------|-------------------------|
|-----------------------|-------------------------|


|-----------------------|-------------------------|----6--6--6--6-p-5--3-----|--------------------------|
|-----------------------|-3-------3--6-p-4--3-----|-----------------------6--|-4-h-8--8--8--8-p-6--4----|
|-3----2--3--5----3--5--|------5---------------5--|-3------------------------|-----------------------7--|
|-----------------------|-------------------------|--------------------------|--------------------------|
|-----------------------|-------------------------|--------------------------|--------------------------|
|-----------------------|-------------------------|--------------------------|--------------------------|


|---------------------------|-------------------------|-----------------------|-------------------------|
|---------------------6-----|-------------------------|------------3-------3--|-6-p-4--3----------------|
|-5-h-8--8--8--8-p-7--------|-7-p-5--3--2--3----2--3--|-5----3--5-------5-----|-----------5--3----2--3--|
|------------------------8--|-------------------------|-----------------------|-------------------------|
|---------------------------|-------------------------|-----------------------|-------------------------|
|---------------------------|-------------------------|-----------------------|-------------------------|


|-----------------------|-----------------6--6--6--|-6-p-5--3------------------|---------------------------|
|------------3-------3--|-6-p-4--3-----------------|-----------6--4-h-8--8--8--|-8-p-6--4------------------|
|-5----3--5-------5-----|-----------5--3-----------|---------------------------|-----------7--5-h-8--8--8--|
|-----------------------|--------------------------|---------------------------|---------------------------|
|-----------------------|--------------------------|---------------------------|---------------------------|
|-----------------------|--------------------------|---------------------------|---------------------------|
  
                             D.C. al Coda                   Coda
|--------------------------|------------------|           |------------------|
|--------6-----------------|------------------|           |------------------|
|-8-p-7--------7--5--3--2--|-3----------------|           |------------------|
|-----------8--------------|------------------|           |-5----------------|
|--------------------------|------------------|           |------------------|
|--------------------------|------------------|           |-3----------------|






Tablature explanation:
h - hammer-on
p - pull-off
8va - means that the passage played in the original composition is one octave higher
than indicated in the tablature





[ Tab from: http://www.guitartabs.cc/tabs/w/wolfgang_amadeus_mozart/symphony_no_25_tab.html ]







                            


                                     SYMPHONY No. 25
                                  Wolfgang Amadeus Mozart


E|-3--3----3----3----3--|----------------------|----------------------|----------------------|
B|----------------------|-3--3----3----3----3--|-4--4----4----4----4--|----------------------|
G|-0--0----0----0----0--|----------------------|----------------------|----------------------|
D|----------------------|-0--0----0----0----0--|-1--1----1----1----1--|-4--4----4----4----4--|
A|----------------------|----------------------|----------------------|----------------------|
E|----------------------|----------------------|----------------------|-2--2----2----2----2--|


|----------3--6p5p3s2-3----|----------3--6p5p3s2-3----|----------5--8p6p5---5----|
|-------3------------------|-------3------------------|-------7-----------8------|
|----3---------------------|----3---------------------|----5---------------------|
|-5------------------------|-5------------------------|-7------------------------|
|--------------------------|--------------------------|--------------------------|
|--------------------------|--------------------------|--------------------------|


|----------5--8p6p5---5----|----------6--10p8p6----6----|----------6--10p8p6----6----|
|-------7-----------8------|-------8------------10------|-------8------------10------|
|----5---------------------|----7-----------------------|----7-----------------------|
|-7------------------------|-8--------------------------|-8--------------------------|
|--------------------------|----------------------------|----------------------------|
|--------------------------|----------------------------|----------------------------|


|-8p6p5p---5----6p5p3s2-3----|-2h3-2h3-------------------------|
|--------8-------------------|---------2h3-2h3-----------------|
|----------------------------|-----------------2h3-2h3---------|
|----------------------------|-------------------------4h5-4h5-|
|----------------------------|---------------------------------|
|----------------------------|---------------------------------|

                                             To Coda 
|-------------------------------------|--------------------|
|-------------------------------------|-----------R--------|
|-5--5--5--2--2--2--------------------|-4---------E--------|
|-------------------4--4--4--5--5--5--|------5----S--------|
|-------------------------------------|-----------T--------|
|-------------------------------------|--------------------|


E|-3--3----3----3----3--|----------------------|----------------------|----------------------|
B|----------------------|-3--3----3----3----3--|-4--4----4----4----4--|----------------------|
G|-0--0----0----0----0--|----------------------|----------------------|----------------------|
D|----------------------|-0--0----0----0----0--|-1--1----1----1----1--|-4--4----4----4----4--|
A|----------------------|----------------------|----------------------|----------------------|
E|----------------------|----------------------|----------------------|-2--2----2----2----2--|


|-3----------------|------------------|------------------|------------------|
|------------------|-3----------------|-4----------------|------------------|
|------------------|------------------|------------------|------------------|
|------------------|------------------|------------------|-4----------------|
|------------------|------------------|------------------|------------------|
|------------------|------------------|------------------|------------------|


|------------------|-3----------------|-6----------------|------------------|
|------------------|------------------|------------------|-2----------------|
|------------------|------------------|------------------|------------------|
|------------------|------------------|------------------|------------------|
|-5----------------|------------------|------------------|------------------|
|------------------|------------------|------------------|------------------|


|-----------------------|-----------------------|-------------------|------------------|
|-3------2--3--2--3--2--|-3------2--3--2--3--2--|-3--------3--------|-3----------------|
|-----------------------|-----------------------|-------------------|------------------|
|-----------------------|-----------------------|-------------------|------------------|
|-----------------------|-----------------------|-------------------|------------------|
|-----------------------|-----------------------|-------------------|------------------|


|------------------|-6----------------|-5p3--------------------|-5p3--------------------|
|------------------|------------------|-----6--6--6--6----R----|-----6--6--6--6----R----|
|-3----------------|------------------|-------------------E----|-------------------E----|
|------------------|------------------|-------------------S----|-------------------S----|
|------------------|------------------|-------------------T----|-------------------T----|
|------------------|------------------|------------------------|------------------------|


|------------------|-6----------------|-5p3--------------------|-5p3--------------------|
|------------------|------------------|-----6--6--6--6----R----|-----6--6--6--6----R----|
|-3----------------|------------------|-------------------E----|-------------------E----|
|------------------|------------------|-------------------S----|-------------------S----|
|------------------|------------------|-------------------T----|-------------------T----|
|------------------|------------------|------------------------|------------------------|

8va---------------------------------------------------------------------
                            _____3_____  ____3_____  _____3_____
|-------------------18----|-22-p-18--------------18--22-p-18------------|
|-------------18----------|----------18------18---------------18--------|
|-------19----------------|--------------19-----------------------19----|
|-20----------------------|---------------------------------------------|
|-------------------------|---------------------------------------------|
|-------------------------|---------------------------------------------|

8va----------------------------------------------------------------------
                            _____3_____  ____3_____  _____3_____
|-------------------------|---------------------------------------------|
|-------------------16----|-20-p-16--------------16--20-p-16------------|
|-------------------------|---------------------------------------------|
|-------17----20----------|----------20--17--20---------------20--17----|
|-18----------------------|---------------------------------------------|
|-------------------------|---------------------------------------------|

8va----------------------------------------------------------------------
                            _____3_____  ____3_____  _____3_____
|-------------------17----|-20-p-17--------------17--20-p-17------------|
|-------------16----------|---------------------------------------------|
|-------17----------------|----------20--17--20---------------20--17----|
|-19----------------------|---------------------------------------------|
|-------------------------|---------------------------------------------|
|-------------------------|---------------------------------------------|

bva----------------------------------------------------------------------
                            _____3_____  ____3_____  _____3_____
|-------------------------|---------------------------------------------|
|-------------------15----|-18-p-15--------------15--18-p-15------------|
|-------------15----------|----------15------15---------------15--------|
|-------15----------------|--------------15-----------------------15----|
|-17----------------------|---------------------------------------------|
|-------------------------|---------------------------------------------|

8va----------------------------------------------------------------------
                            _____3_____  ____3_____  _____3_____
|-------------------------|-18-p-15--------------15--18-p-15------------|
|-------------------15----|----------15------15---------------15--------|
|-------------15----------|--------------15-----------------------15----|
|-------15----------------|---------------------------------------------|
|-17----------------------|---------------------------------------------|
|-------------------------|---------------------------------------------|

8va----------------------------------------------------------------------
                            _____3_____  ____3_____  _____3_____
|-------------------------|---------------------------------------------|
|-------------------13----|-16-p-13--------------13--16-p-13------------|
|-------------12----------|---------------------------------------------|
|-------13----------------|----------17--13--17---------------17--13----|
|-15----------------------|---------------------------------------------|
|-------------------------|---------------------------------------------|


|-11--11--8--8--5--5--------|-------------------------|-10--10--6--6--------------|
|---------------------6--6--|-------------------------|---------------6--6--------|
|---------------------------|-8--8--5--5--------------|---------------------7--7--|
|---------------------------|-------------7--7--------|---------------------------|
|---------------------------|-------------------8--8--|---------------------------|
|---------------------------|-------------------------|---------------------------|


|-------------------------|-9--9--6--6--------------|-------------------------|
|-------------------------|-------------6--6--------|-------------------------|
|-------------------------|-------------------6--6--|-------------------------|
|-8--8--------------------|-------------------------|-8--8--------------------|
|-------8--8--5--5--------|-------------------------|-------8--8--4--4--------|
|-------------------6--6--|-------------------------|-------------------6--6--|


|-9--9--6--6--------------|-------------------------|-------------------------|---------------------|
|-------------8--8--5--5--|-------------------------|-------------------------|------6---------R----|
|-------------------------|-6--6--------------------|-------------------------|----------------E----|
|-------------------------|-------8--8--5--5--------|-3--3--4--4--3--3--------|-3---------3----S----|
|-------------------------|-------------------7--7--|-------------------7--7--|----------------T----|
|-------------------------|-------------------------|-------------------------|---------------------|


|-----------------------|-------------------------|
|-----------------------|-3-------3--6-p-4--3-----|
|-3----2--3--5----3--5--|------5---------------5--|
|-----------------------|-------------------------|
|-----------------------|-------------------------|
|-----------------------|-------------------------|


|-----------------------|-------------------------|----6--6--6--6-p-5--3-----|--------------------------|
|-----------------------|-3-------3--6-p-4--3-----|-----------------------6--|-4-h-8--8--8--8-p-6--4----|
|-3----2--3--5----3--5--|------5---------------5--|-3------------------------|-----------------------7--|
|-----------------------|-------------------------|--------------------------|--------------------------|
|-----------------------|-------------------------|--------------------------|--------------------------|
|-----------------------|-------------------------|--------------------------|--------------------------|


|---------------------------|-------------------------|-----------------------|-------------------------|
|---------------------6-----|-------------------------|------------3-------3--|-6-p-4--3----------------|
|-5-h-8--8--8--8-p-7--------|-7-p-5--3--2--3----2--3--|-5----3--5-------5-----|-----------5--3----2--3--|
|------------------------8--|-------------------------|-----------------------|-------------------------|
|---------------------------|-------------------------|-----------------------|-------------------------|
|---------------------------|-------------------------|-----------------------|-------------------------|


|-----------------------|-----------------6--6--6--|-6-p-5--3------------------|---------------------------|
|------------3-------3--|-6-p-4--3-----------------|-----------6--4-h-8--8--8--|-8-p-6--4------------------|
|-5----3--5-------5-----|-----------5--3-----------|---------------------------|-----------7--5-h-8--8--8--|
|-----------------------|--------------------------|---------------------------|---------------------------|
|-----------------------|--------------------------|---------------------------|---------------------------|
|-----------------------|--------------------------|---------------------------|---------------------------|
  
                             D.C. al Coda                   Coda
|--------------------------|------------------|           |------------------|
|--------6-----------------|------------------|           |------------------|
|-8-p-7--------7--5--3--2--|-3----------------|           |------------------|
|-----------8--------------|------------------|           |-5----------------|
|--------------------------|------------------|           |------------------|
|--------------------------|------------------|           |-3----------------|






Tablature explanation:
h - hammer-on
p - pull-off
8va - means that the passage played in the original composition is one octave higher
than indicated in the tablature
Comments