Wolfgang - What Grows In Your Garden Chords & Tabs

 

What Grows In Your Garden Chords & Tabs

Wolfgang Chords & Tabs

Version: 2 Type: Tab 0 ratings
1 star 2 stars 3 stars 4 stars 5 stars
comments

What Grows In Your Garden Tab

   
-------------------------------------------------------------------------------
	            WHAT GROWS IN YOUR GARDEN - WOLFGANG
-------------------------------------------------------------------------------
Tabbed by:toto crespo
Email:grandmastercool8@yahoo.com

Tuning:tunedown halfstep (Eb,Ab,Db,Gb,Bb,Eb)






intro


   
    G                 A#                 G                  A#


   let ring----]      -----------------]  ----------------]  ----------------]

e|---------------------------------------------------------------------7-----|
B|---------------------------------------------------------------6-----8-----|
G|-------------------------------7---------------------------------7---7--7--|
D|--5-----------------8--------8---8-----5------------------8--8-----------8-|
A|--5-----------------8-----8---------8--5------------------8----------------|
E|--3-----------3/6---6---6--------------3------------------6----------------|



    G                 A#                 G                  A#

    let ring----]     -----------------]  ------------]      --------------]

e|------3-------------------------------------3------------------------------|
B|------3-------------------------------------3------------------------------|
G|------4-----------------------------6-------4------------------------------|
D|--5-----------------8------6----6------5------------------8----------------|
A|--5-----------------8--6h8----6---6----5------------------8----------------|
E|--3----------3/6----6------------------3------------3/6---6----------------|





verse



G                 A#                 G                  A#


   let ring----]      -----------------]  ----------------]  ----------------]

e|------------------------------------------------------------6--------------|
B|--------------------------------6---------------------------6--------------|
G|--------------------------7--------------------------4------7--------------|
D|--5-----------------8---8----8---------5------5-----------8---------6------|
A|--5-----------------8------------------5---5------5-------8---6-8-6-----6-8|
E|--3-----------3/6---6------------------3------------------6-----------6----|

 the rain....                              and the water......  



    G                 A#                 G              A#

    let ring----]     -----------------]  ------------]      --------------]

e|------3--------------------------------------------------------------------|
B|------3---------------------------6----------------------------------------|
G|------4--------------------7-----------------------------------------------|
D|--5-----------------8---8------8-------5--------------8--------------------|
A|--5-----------------8------------------5--------------8--------------------|
E|--3----------3/6----6------------------3--------3/6---6--6/8-8-8-8/10-10-10|

  your eyes.....                          hoping more rain..... 





chorus 1


e|-------------------------------------------------------------------|
B|---------------------------------------------3---------------------|
G|----------------------5---3------------------2-xx--3---------------|
D|--3/5----5------------5---3--3/5----5----------xx--3--3--3/5----5--| 4x
A|--3/5----5-------5p3---------3/5----5-----------------3--3/5----5--|
E|--1/3-xx-3---6p3-------------1/3-xx-3---6p3--------------1/3-xx-3--|

    but the flowers....


[ Tab from: http://www.guitartabs.cc/tabs/w/wolfgang/what_grows_in_your_garden_tab_ver_2.html ]
					to all wolvesters out there.
gtr line before the 2nd stanza		di ko sigurado kung tama ito
					pero try nyo rin. yung "fig a:"
e|------------------------|		ito yung solo part sa may 
B|------------------------|		chorus 2. yung adlib actually
G|------------------------|		dalawang dub ito. pero isa lang
D|-------------5-3--------|		ung pinili ko. ung mas malinaw.
A|-------3--3-5---5-------|		kayo na bahala sa adlib 2. des-
E|----3h6--6-------6-3----|		kartehan nyo nalang. kung dalawa
					kayong gitarista sa banda nyo.
					ung isang gtrista, ganitong chord
					shape ung gamitin mo.
hi to all UG community
members. dun sa mga 			G                      A#            
buddy ko. sa aking                                 
magagandang anak solita		E  A  D  G  B  E        E  A  D  G  B  E      
and sharon. and sylvia.         x______________x        x______________x           
      				:  :  :  :  :  :        :  :  :  :  :  :       
  			     V  :__o__o__:__:__:   VIII :__O__O__:__:__:       
      				:  :  :  :  :  :        :  :  :  :  :  :      
     			        :__:__:__:__:__:        :__:__:__:__:__:     
      				:  :  :  :  :  :        :  :  :  :  :  :       
  			    VII :__:__:__O__:__:      X :__:__:__O__:__:      
     			        :  :  :  :  :  :        :  :  :  :  :  :     
     			        :__:__:__:__O__:        :__:__:__:__O__:    
     			        :  :  :  :  :  :        :  :  :  :  :  :     
     			        :__:__:__:__:__:        :__:__:__:__:__:     
 fig A:                          
					
e|-----3--------------|                  
B|------6p3-3---------|
G|--5^-----5-5-3h5p3--|
D|------------------5-|
A|--------------------|
E|--------------------|





pre adlib



e|---------------------------------------------------------------------------|
B|---------------------------------------------------------------------------|
G|--3-3-3-3------------------------------------------------------------------|
D|--3-3-3-3--3-------4--3------4--3333-3333-3333--4--3333-3333-3333--4-------|
A|--1-1-1-1--3-------4--3------4--3333-3333-3333--4--3333-3333-3333--4-------|
E|-----------1-------2--1------2------------------2------------------2-------|




adlib

| /  slide up
| \  slide down
| h  hammer-on
| p  pull-off
| ~  vibrato
| +  harmonic
| x  Mute note
| T  tap

e|---------------------------------------------------------------------6-----|
B|---------------3----------------------------10^<10p8-8--8------------6-----|
G|-----3-3p2p0-5^--5-3-5p3----9^-9-9-7---7-9-------------9----5/7--7-7-------|
D|--5---------------------5------------9-------------------------------------|
A|---------------------------------------------------------------------------|
E|---------------------------------------------------------------------------|



e|----6-----6--6-----6h86----------------------------------------------------|
B|----6-----6--6---------8----12^-12-10-12-10-----6h8p6-5h6p5----------------|
G|--7-----7------7-7-------------------------11--------------7--5h7p5--------|
D|--------------------------------------------------------------------7------|
A|---------------------------------------------------------------------------|
E|---------------------------------------------------------------------------|


      T        T        T        T
e|----------------------------------------18^-18-15--15---------15-----------|
B|---17-12h14-17-12h14-17-12h14-17-12h14-----------18--18-15-18^--18-15-18^--|
G|---------------------------------------------------------------------------|
D|---------------------------------------------------------------------------|
A|---------------------------------------------------------------------------|
E|---------------------------------------------------------------------------|



e|--18^-15h18p15--15----------------------------------12---------------------|
B|--------------18--18--13h15p13-12h13p12--12-----15^----13h15p13---13-------|
G|---------------------------------------14--14------------------14---14-----|
D|---------------------------------------------------------------------------|
A|---------------------------------------------------------------------------|
E|---------------------------------------------------------------------------|



e|-----------------------------------------------------------------|
B|-----------------------------------------------------------------|
G|--12h14p12-10h12p10----------------------------------------------|
D|-------------------12--10h12p10-8h10p8-6h8p6-5h6p5--3-----4-4--5-|
A|----------------------------------------------------3-----4-4--5-|
E|----------------------------------------------------1-----2-2--3-|






===============================================================================
Comments