Wolfgang - Tulisan Chords & Tabs

 

Tulisan Chords & Tabs

Wolfgang Chords & Tabs

Version: 2 Type: Tab 0 ratings
1 star 2 stars 3 stars 4 stars 5 stars
comments

Tulisan Tab

Artist: Wolfgang
Song: Tulisan
Album: Serve In Silence
Tabbed by: BHOVOI ORIAS
----Just giving an Idea----
Intro/Verse:

e-------------------------------------------|
b-------------------------------------------|
g-------------------------------------------|
d---5-5--3--5-5--8-8--5-9-------------------|
a---5-5--3--5-5--8-8--5-9-------------------|
e---3-3--1--3-3--6-6--3-7-------------------|


Pre-Chorus:

e-------------------------------------|
b-------------------------------------|
g-------------6-6-6-6-----------------|
d---5-5-5-5---6-6-6-6-----------------|
a---5-5-5-5---4-4-4-4-----------------|
e---3-3-3-3---------------------------|


Chorus:

e-----------------------------------------------------|
b-----------------------------------------------------|
g-----------------------------------------------------|
d--5--5--5--5--5--5--7--5-----------------------------|
a--5--5--5--5--5--5--7--5-----------------------------|
e--3--3--3--3--3--3--5--3-----------------------------|
[ Tab from: http://www.guitartabs.cc/tabs/w/wolfgang/tulisan_tab_ver_2.html ]
e--------------------------------------------------|
b--------------------------------------------------|
g--------------------------------------------------|
d--5--5--5--5/10--8--------------------------------|
a--5--5--5--5/10--8--------------------------------|
e--3--3--3--3/8---6--------------------------------|
2x

Repeat Intro Verse...P.M.
Repeat Pre-Chorus

2nd Chorus:

e-----------------------------------------------|
b-----------------------------------------------|
g-----------------------------------------------|
d--5--5--5--5/8--10-----------------------------|
a--5--5--5--5/8--10-----------------------------|
e--3--3--3--3/6--8------------------------------|

e--------------------------------------------------|
b--------------------------------------------------|
g--------------------------------------------------|
d--5--5--5--5/10--8--------------------------------|
a--5--5--5--5/10--8--------------------------------|
e--3--3--3--3/8---6--------------------------------|
2x

SOLO:
Repeat Intro/Verse
Repeat Pre-Chorus
Repeat 1st Chorus
Comments