Wolfgang - She Is My Cain Chords & Tabs

 

She Is My Cain Chords & Tabs

Wolfgang Chords & Tabs

Version: 1 Type: Tab 0 ratings
1 star 2 stars 3 stars 4 stars 5 stars
comments

She Is My Cain Tab

   
Artist: Wolfgang
Song: She is my cain
Album: Acoustica/Wurm
Tabbed by: Sarvjit

this is the acoustic version of the song

Intro and verse                                                                                                                          G                  F 
e|----5------3--------5p3-------|----------------|---1------------|
B|----5------3------------------|--------0-------|---1------1-----|
G|----6------4------------------|----0h2---------|---2--------2---|
D|-7---------5----5-------------|----------------|---3----3-------|
A|------------------------------|----------------|---3------------|
E|------------------------------|-3--------------|----------------|
[ Tab from: http://www.guitartabs.cc/tabs/w/wolfgang/she_is_my_cain_tab.html ]
Refrain:
    C#M7     F                                  C#M7     F              G
e|-------------------|   |-7---7---7---7--|  |--------------|   |----3-----3---|
B|----5------1-------|   |---8---8---8---8|  |----5------1--|   |----3---3-----|
G|----4------2-------|3x |----------------|  |----4------2--|3x |----0---------|
D|----5------3-------|   |----------------|  |----5------3--|   |----0---------|
A|-3---------3-------|   |----------------|  |-3---------3--|   |----2---------|
E|-------------------|   |----------------|  |--------------|   |----3---------|

Interlude: verse and refrain

Lyrics

She is my drug 
she is my vein 
she is my life 
she is my pain 
she is my wheat 
she is my grain 

I can abstain though I know it's so plain 
she is my cain 
upon the night i see her eyes her tears are my skies her heart beats my life 
I can't refrain though I know it's so plain 

she is my cain 
she is my night 
she is my day 
she is my sun 
she is my rain 

I can't complain cause I know she's my bane 
she is my bane




for your comments and suggestions email me at sarvjit@edsamail.com.ph or sarvjit8@yahoo.com

 
Comments