Wolfgang - Semenelin Chords & Tabs

 

Semenelin Chords & Tabs

Wolfgang Chords & Tabs

Version: 2 Type: Tab 0 ratings
1 star 2 stars 3 stars 4 stars 5 stars
comments

Semenelin Tab

                     "SEMENELIN" BY WOLFGANG
                     transcribed by: freongang
                visit me at: freongang_81@yahoo.com
                      freongang_08@yahoo.com

   intro:
e|-----------  ----------0----------  ------------------------0----|
B|-----------  --------0------------  ---------------------0-------|
G|--3--6-----  ------0--------------  --3--6-----------------------|
D|--3--6--4--  ---1-----------3-2-0-  --3--6--4---------1----------|
A|--------4--  ---------------------  --------4-------0------------|
E|-----------  -3-------------------  -------------3---------------|

 awkward sound...
e|-------------------------  -------------------------------------|
B|-------------------------  -------------------------------------|
G|-------------------------  -------------------------------------|
D|-5/7-7-7-7---------------  -5/7-7-7-7---------------------------|
A|-5/7-7-7-7----4-----7----  -5/7-7-7-7-----4-5-5------6-7-7------|
E|-3/5-5-5-5--5-----6---6--  -3/5-5-5-5---5----------7------------|
  
  i can hear my heart pounding...              w/drum beat  
e|-------------------------------  ----------------------------|
B|-------------------------------  ----------------------------|
G|-9-9-9-9-9-9-------------------  ----------------------------|
D|-9-9-9-9-9-9-------------------  ----------------------------|
A|-7-7-7-7-7-7-10-10-10-10-10-10-  ----------------------------|
E|-------------8--8--8--8--8--8--  --5-3-2--3-2--3-2--1-1------|

   after solo:                        X3     X5     X5
e|---------------------------------  -----------------------|
B|---------------------------------  -----------------------|
G|---------------------------------  -----------------------|
D|---------------------------------  -----------------------|
A|-9-8-8--9-9--8-8--9-9--6---------  -9------9-------9------|
E|-7-6-6--7-7--6-6--7-7----7-7-8-6-  -7------7-------7------|

[ Tab from: http://www.guitartabs.cc/tabs/w/wolfgang/semenelin_tab_ver_2.html ]
          X2                      X2
e|-------------9-11--  --------9------------11-----------|
B|----------10-------  ------8-----------10--------------|
G|--------9----------  ----7-----------9-----------------|
D|------7------------  --9----------11-------------------|
A|----9--------------  ----------------------------------|
E|--9----------------  ----------------------------------|

e|--7--10--7--  --7--------------------------|
B|--9--10--7--  --9--------------------------|
G|--9--10--7--  --9--------------------------|
D|--9--10--7--  --9--12---10---9-------------|
A|--7---------  --7--12---10---9-------------|
E|------------  -----------------------------|

  at once the military came...
e|---7----10----7----------------------------|
B|---9----10----7----------------------------|
G|---9----10----7----------------------------|
D|---9----10----7----------------------------|
A|---7---------------------------------------|
E|-------------------------------------------|

 as payment for our sins to the mighty monarch semenelin
e|------------------------------------------------|
B|------------------------------------------------|
G|------------------------------------------------|
D|-9-9-9-11-11-11-11-12-12-12-14-14-15-15-15-15---|
A|-7-7-7-9--9--9--9--10-10-10-12-12-13-13-13-13---|
E|------------------------------------------------|

e|---7----10----7----------------------------|
B|---9----10----7----------------------------|
G|---9----10----7----------------------------|
D|---9----10----7----------------------------|
A|---7---------------------------------------|
E|-------------------------------------------|
  
   final riffs                 w/drum beat
e|------------------  -------------------------------------|
B|------------------  -------------------------------------|
G|------------------  -------------------------------------|
D|------------------  -------------------------------------|
A|---^-^-^---7------  -------------------------------------|
E|--0-5-7-8-----5---  --2-3-3-3--2-3-3-3---2-3-3-3-3-3-1---|

              
            yung solo nito, kung pakikinggan parang simpleng simple lng,  
              pero ang hirap pla...... but i will still try ulit?!?!
        hey guys! any one knows the solo of this song... pls help me up>>>

       INFO: this song semenelin is a part of the dream of basti artardi 
                 it was his nightmare once could it believe......   
           until he made it up... he composed it as a wolfgang song 
                             called "semenelin"
Comments