Wolfgang - Sanctified Chords & Tabs

 

Sanctified Chords & Tabs

Wolfgang Chords & Tabs

Version: 1 Type: Tab 0 ratings
1 star 2 stars 3 stars 4 stars 5 stars
comments

Sanctified Tab

song:sanctified
artist:wolfgang
album:wurm
tab by:leander_85@yahoo.com

INTRO:(repeat 8x)
Eb|-------------------------------|
Bb|-------------------------------|
Gb|-------9------9----9--8^9------|
Db|--------------------------9----|
Ab|-----7---7-7---7-7-------------|
Eb|--\7---------------------------|
            . .   . .
stanzas:
Eb|-------------------------------|
Bb|-------------------------------|
Gb|-----9-------12p9--------------|
Db|-----9-------12p9--------------|
Ab|--7-----7-7--------------------|
Eb|-------------------------------|

chorus:
[ Tab from: http://www.guitartabs.cc/tabs/w/wolfgang/sanctified_tab.html ]
Eb|-------------------------------|
Bb|-------------------------------|
Gb|-------------------------------|
Db|--5-----7----------------------|
Ab|--3-----5--2---2---------------|
Eb|--3--0--5--0-0-0---------------|
        .
Eb|-------------------------------| |----------------10-----------|
Bb|-------------------------------| |----------------10^12-10^12--|
Gb|---------9------9-------9--8^9-| |-------9-----9---------------|
Db|-------------------------------| |-----------------------------|
Ab|------7----7-7-----7-7---------| |-----7---7-7-----------------|
Eb|--\7---------------------------| |--\9-------------------------|
         .    . .     . .                 .   . .
bridge:santified...sanctified
Eb|-------------------------------|
Bb|-------------------------------|
Gb|-------------------------------|
Db|-------------------------------|
Ab|--2-2-2--2-2-2-----------------|
Eb|--0-0-0--0-0-0-----------------|
     . .    . .   
RIFF II
Eb|-------------------------------|
Bb|-------------------------------|
Gb|-------------------------------|
Db|-------------------------------|
Ab|--------2-2-2--2-2-2--2-2-2----|
Eb|--\7-\5-0-0-0--0-0-0--0-0-0----|
           . .    . .    . . .  
RIFF after SOLO
Eb|-------------------------------|
Bb|-------------------------------|
Gb|-------------------------------|
Db|-------------------------------|
Ab|-------------------------------|
Eb|--\7-\5-\10-10-10-10-10-10-10--|
             .  .  .  .  .  .  .   
Eb|------------------------------------------------------------------------|
Bb|------------------------------------------------------------------------|
Gb|------------------------------------------------------------------------|
Db|------------------12-----------------14-----------------12---12--9-7-9--|
Ab|------------------10-----------------12-----------------10---9---7-5-7--|
Eb|--0-0-0-0-0-0-0-0----0-0-0-0-0-0-0-0----0-0-0-0-0-0-0-0----0---0--------|
     . . . . . . . .    . . . . . . . .    . . . . . . . .    .   .

still workin on solo, help if anyone have solo please post it here....       
                                    the end..
tab by: leander m.
Comments