Wolfgang - No Falter Chords & Tabs

 

No Falter Chords & Tabs

Wolfgang Chords & Tabs

Version: 1 Type: Tab 0 ratings
1 star 2 stars 3 stars 4 stars 5 stars
comments

No Falter Tab

ARTIST:WOLFGANG
SONG:NO FALTER(FROM THEIR ALBUM "BLACK MANTRA")
BY:SEBASTIAN ARTADI,MANUEL LEGARDA,RAMON LEGASPI,WOLF GEMORA
TAB BY:LEANDER MARVIN V. MACUTAY

info:this song "no falter" becomes the soudtrack of final fantasy the spirit
within and played by the wolfgang. the song compiled in their album "BLACK
MANTRA" and this is my favorite song of wolfgang.please correct me if this tab
is 50% and up wrong send me the right tab if this is wrong.


Eb|----------------------------------------------------------|
Bb|----------------------------------------------------------|
Gb|----------------------------------------------------------|
Db|----------9-8-7-6-5---6-5-4-3-2---9-8-7-6-5---6-5-4-3-2---|
Ab|----------7-6-5-4-3---4-3-2-1-0---7-6-5-4-3---4-3-2-1-0---|
Eb|--0-0-0-0-----------0-----------0-----------0-------------|
     * * * *           *           *           *

GUITAR-1(I dont know if this is correct)USE PEDAL PITCH IN THIS POINT
Eb|----------------------------------------------------------|
Bb|----------------------------------------------------------|
Gb|------------------------------5-5H7-7H9-9H11-12-----------|
Db|--9P12P11P9-9H11-7H9P7-7SL5P7-----------------------------|
Ab|----------------------------------------------------------|
Eb|----------------------------------------------------------|


GUITAR2
Eb|---------------------|
Bb|---------------------|
Gb|---------------------|
Db|--9--10--7--9--|--7--|
Ab|--7--8---5--7--|--5--|
Eb|---------------|-----|

STANZA
Eb|---------------------------------------|
Bb|---------------------------------------|
Gb|---------------------------------------|
Db|--2-----2--2-----5--2--12SL7SL9--9--2--|
Ab|--2-----2--2-----5--2--10SL5SL7--7--2--|
Eb|--0--0--0--0--0--3--0---------------0--|
        *        *

REFRAIN
Eb|-----------------------------------------------------|
Bb|-----------------------------------------------------|
Gb|-----------------------------------------------------|
Db|--2--2--3--2--------------|-----4-----2--|--4--3--2--|
Ab|--2--2--3--2-----------5--|-----2-----0--|--2--1--0--|
Eb|--0--0--0--0--0--3--0--3--|--0-----0-----|-----------|
     *           *     *        *     * 

CHORUS
Eb|-----------------------------------------------------|
Bb|-----------------------------------------------------|
Gb|-----------------------------------------------------|
Db|--2-----------------9-----5--|-----------------------|
Ab|--2-----5--9-----7--7--0--3--|--7P5-----7-----9--10--|
Eb|--0--0--3--7--0--5-----0-----|-------0-----0---------|
        *        *        *             *     * 

BRIDGE
Eb|-----------------------------------------------------------------------|
Bb|-----------------------------------------------------------------------|
Gb|----------4--------------4--------------5---------------5--------------|
Db|--4--4-------2--4--4--------2--5--5--------3---5--5--------3--5SL7SL12-|
Ab|--2----2--------2-----2--------3-----3---------3-----3--------3SL5SL10-|
Eb|-----------------------------------------------------------------------|

SOLO:
Eb|--------------------------------------------------|
Bb|--8H10------------12-----10--8H10P8---------------|
Gb|--------7SL9SL10------9--------------10-10--------|
Db|--------------------------------------------------|
Ab|--------------------------------------------------|
Eb|--------------------------------------------------|

Eb|--------------------------------------------------|
Bb|--------------------------------------------------|
Gb|--------------------------------------------------|
Db|--9SL10--10SL9--9P7--7-7--6H7---------------------|
Ab|--------------------------------7--7SL8--8SL9--9--|
Eb|--------------------------------------------------|

Eb|-----------------9--11--11^13--11--9---------8-8----------|
Bb|---------12---------------------------11-11-------11------|
Gb|--9SL12------10---------------------------------------10--|
Db|--9SL12---------------------------------------------------|
Ab|----------------------------------------------------------|
Eb|----------------------------------------------------------|

Eb|----------------------------------------------------------|
Bb|--12SL16--12-12SL15--0-15^16------------------------------|
Gb|--13SL15--13-13SL16--0-14^15--12H14P12--9H11P9--7H9P7-----|
Db|----------------------------------------------------------|
Ab|----------------------------------------------------------|
Eb|----------------------------------------------------------|

[ Tab from: http://www.guitartabs.cc/tabs/w/wolfgang/no_falter_tab.html ]
Eb|--------------------------------------------------------0-0-10H12---|
Bb|-------10H12---------------------0-0-10H12--------------------------|
Gb|--7H9---------11H12--0-7H9--7H9-------------0-0-10H12---------------|
Db|--------------------------------------------------------------------|
Ab|--------------------------------------------------------------------|
Eb|--------------------------------------------------------------------|


Eb|--12-12-12P15P14P12--12-12-12P15P14P12------12P15P14P12-------------|
Bb|----------------------------------------15---------------12---------|
Gb|--------------------------------------------------------------------|
Db|--------------------------------------------------------------------|
Ab|--------------------------------------------------------------------|
Eb|--------------------------------------------------------------------|


Eb|-------------------------7--13^15--|
Bb|----------------------9------------|
Gb|--15P14P12---------7---------------|
Db|------------9SL12------------------|
Ab|-------------------5---------------|

Eb|--14-14P17P16P14-14P17P16P14-14P17P16P14-14P17P1614--------------|
Bb|-----------------------------------------------------17----------|
Gb|-----------------------------------------------------------------|
Db|-----------------------------------------------------------------|
Ab|-----------------------------------------------------------------|
Eb|-----------------------------------------------------------------|

Eb|-----------------------------------------------------------------|
Bb|-----------------------------------------------------------------|
Gb|--16^18--16P12-16P12-------------12------14------15------14--12\-|
Db|----------------------11SL14-14------14------14------14----------|
Ab|-----------------------------------------------------------------|
Eb|-----------------------------------------------------------------|

Eb|-----------------------------------------------------------------|
Bb|-----------------------------------------------------------------|
Gb|--12^14--7-7H9P7---------------------------------------------5---|
Db|------------------8H10P8----------------------7--------7-----7---|
Ab|--------------------------8H10P8-----------------5-----5---------|
Eb|----------------------------------8H10P8--5\--------5-----0------|
                                                             *

                                       |-TAKE EM OUT LAST PART-|
Eb|-----------------------------------------------------------------|
Bb|-----------------------------------------------------------------|
Gb|-----------------------------------------------------------------|
Db|---------------------------9--9\--|---------------------------2--|
Ab|---------------------------7--7\--|--7(SL)5(SL)4(SL)5(SL)4(SL)2--|
Eb|--0-0-0-0-0-0-0-0-0-0-0-0---------|---------------------------0--|
     * * * * * * * * * * * *
GUITAR-1                   GUITAR-2
Eb|------------------||-----------------||-----|
Bb|------------------||-----------------||-----|
Gb|------------------||-----------------||-----|
Db|--7-6--9--7-6--9--||-----------9-----||--9--|
Ab|-------7-------7--||--7--5-----7--7--||--7--|
Eb|------------------||--5--3--0-----5--||-----|      
                               *
     ("IN THIS DESPERATE TIMES" )   
Eb|--------------------------------|
Bb|--------------------------------|
Gb|--------------------------------|
Db|--------------------------9-----|
Ab|--2-----5--9--9--7--5-----7--7--|
Eb|--0--0--3--7--7--5--3--0-----5--|
        *                 *
Eb|-------------------------------|--------|--------|
Bb|-------------------------------|--------|--------|
Gb|-------------------------------|--------|--------|
Db|-----------9\------------------|--7-----|--9-----|
Ab|-----------7\---------7--5-----|--5--7--|--7--7--|
Eb|--0-0-0-0------0-0-0--5--3--0--|-----5--|-----5--|
     * * * *      * * *        *    
      (DO THIS FAST)
Gb|--15-15SL13-13-13SL11-11SL9-9SL7-7SL-5SL3--------|

Eb|--------------------------------------------------------|
Bb|--------------------------------------------------------|
Gb|--------------------------------------------------------|
Db|--------------------------------------------------------|
Ab|--2-2-2--2-2-2-2-2-2--2SL7SL2--2-2-2--2-2-2-2--2SL8SL2--|
Eb|--0-0-0--0-0-0-0-0-0-----------0-0-0--0-0-0-0-----------|
     * * *  * * * * * *           * * *  * * * *

Eb|--------|
Bb|--------|
Gb|--------|
Db|-----2--|                  VINCENT YEE "BIG NOSE" 
Ab|-----0--|                       F!N!SH
Eb|--0-----|                         END
     *                            C0RA T!RA!!!
TAB BY:LEANDER MARVIN V. MACUTAY
ANUONCEMENT:PLEASE POST ANY WOLFGANG TABS IN THIS WEBSITE,IF THIS IS WRONG 
           JUST POST THE CORRECT ONE IN THIS WEBSITER BUT IM SURE THIS IS 
           CORRCT BUT NOT HUNDRED % ,I JUST POST LATER THE LYRICS.      
           I APOLOGIZE ON THE TAB WEIGHTLESS THE SLIDES ARE LITTLE BIT WRONG
           IF ANYONE CAN CORRECT IT JUST CHECK THE SLEDES IF SLIDE UP OR DOWN.
           THAMKS TO THE ULTIMATE-GUITAR.COM FOR ALLOWING ME TO PAST MY TABS
           AND POSTING IT ON THEIR WEBSITE I HOPE THEY WILL REMOVE IT.
Comments