Wolfgang - Natutulog Kong Mundo Chords & Tabs

 

Natutulog Kong Mundo Chords & Tabs

Wolfgang Chords & Tabs

Version: 1 Type: Tab 0 ratings
1 star 2 stars 3 stars 4 stars 5 stars
comments

Natutulog Kong Mundo Tab

                  "NATUTULOG KONG MUNDO" by wolfgang
                      transcribed by: freongang
                  visit me at: freongang_81@yahoo.com
                       freongang_08@yahoo.com
 

intro:
e|-------------------------------|
B|-------------------------------|
G|-7-----------7-----------------|
D|-7-----------7-----------------|
A|-5-----------5-----------------|
E|-------------------------------|

 at naglaho...
e|-------------------------------|
B|-------------------------------|
G|-9-9--7-7-7-7---6--------------|
D|-9-9--7-7-7-7---6--------------|
A|-7-7--5-5-5-5---4--------------|
E|-------------------------------|
[ Tab from: http://www.guitartabs.cc/tabs/w/wolfgang/natutulog_kong_mundo_tab.html ]
 bote ng alak...
e|------------------------------------------------|
B|------------------------------------------------|
G|---7-----------7-----------7--------------------|
D|-7-7--9-9----7-7--7-7----7-7--9-9---7---9-9-9---|
A|-7-5--9-9-0--7-5--7-7-0--7-5--9-9-0-7---9-9-9---|
E|-5----7-7-0--5----9-9-0--5----7-7-0-5---7-7-7---|

 kaibigan saan ka na ngayon...
e|---------0--------------0----------0------------|
B|-------1---1----------3---3------1--------------|
G|-----0--------------0----------0----------------|
D|---2--------------2----------0------------------|
A|-3--------------0-------------------------------|
E|------------------------------------------------|

 nagsisisi...
e|------------------------------------------------|
B|------------------------------------------------|
G|------------------------------------------------|
D|------------------------------------------------|
A|-9-9-9-9-9-7-7-7-7-7-5-5-5-5-5-4-4-4-4-4--------|
E|-7-7-7-7-7-5-5-5-5-5-3-3-3-3-3-2-2-2-2-2--------|


im not yet finish on the solo, this is my tribute to manuel legarda, sa kanyang putang
inang kamay...... ang bilis nya, hindi ko alam kung san nya nakukuha yang mga kakaibang
tunog ng riffs nya.
    wolfgang,the memory of their song will remains the legend...
                 tnx!?!? freongang_81
Comments