Wolfgang - Mula Sa Kamandag Chords & Tabs

 

Mula Sa Kamandag Chords & Tabs

Wolfgang Chords & Tabs

Version: 1 Type: Tab 0 ratings
1 star 2 stars 3 stars 4 stars 5 stars
comments

Mula Sa Kamandag Tab

   
Song:Mula sa KAmandag

ArtIst:WOLFGANG

Tabbed by:DAnde Mirambel

If you have any comments about this tab..pls feel free to reply me at my 
E-MAIL Add.its "accel@fantasysquare.com" im really not sure about this one 
But its Accurate with proper strumming..we tried it inside the studio and it
Actually worked..Rock n Roll Pipol!!

INTRO
Eb|---------------------------------------------------------------------|
Bb|---------------------------------------------------------------------|
Gb|---------------------------------------------------------------------|
Db|---------------3----4--------------------4----3----------------------|(4X)
Ab|-2---------3---1----2----2----------3----2----1----------------------|
Eb|-0---0--0--1-------------0---0--0---1--------------------------------|
     .   .   .       . . .               .   .   .        . . .
stanza 1

     sanggol kang isinilang walang bahid ng kasalanan......

        F#m     
Eb|--2-------2------2-------2---------2--------------------------------------|
Bb|--2-------2------2-------2---------2--------------------------------------|
Gb|--2-------2------2-------2---------2--------------------------------------|
Db|--2--4----2--4---2----4--2---4-----2----4-------------------------------- (4x)
Ab|--2--4----2--4---2----4--2---4-----2----4--------4------------------------|
Eb|--2-------2------2-------2---------2-------------------3----2---3---2-----|
     .   .   .    . . . .          .   .   .             
Pre Chorus
[ Tab from: http://www.guitartabs.cc/tabs/w/wolfgang/mula_sa_kamandag_tab.html ]
 ....Ngunit may aninong lumalapit..
 
       Gm                            F#m
Eb|--3-----------------------------2--------------------------------------|
Bb|--3-----------------------------2--------------------------------------|
Gb|--3-----------------------------2--------------------------------------|
Db|--3-----5---(12X)---------------2------4---(5X)------------------------|
Ab|--3-----5-----------------------2------4----------4--------------------|
Eb|--3-----------------------------2---------------------3--2--3---2------|

   Puno ng GAlit Puno ng pait...

-       Gm                            F#m
Eb|--3-----------------------------2--------------------------------------|
Bb|--3-----------------------------2--------------------------------------|
Gb|--3-----------------------------2--------------------------------------|
Db|--3-----5---(12X)---------------2------4---(5X)------------------------|
Ab|--3-----5-----------------------2------4----------4--------------------|
Eb|--3-----------------------------2---------------------3--2--3---2------|

CHORUS..

     Ilawan ang Daan..ng Ligaw na nilalang...

Eb|---------------------------------------------------------------------|
Bb|---------------------------------------------------------------------|
Gb|---------------------------------------------------------------------|
Db|--5--------------7--------------5---------------7--------------------|
Ab|--3------3-------5-----6--------3-------3-------5--------6-----------|
Eb|---------1-------------4----------------1----------------4-----------|

       Saan ang liwanag..mula sa KAMANDAG...

Eb|---------------------------------------------------------------------|
Bb|---------------------------------------------------------------------|
Gb|---------------------------------------------------------------------|
Db|--5--------------7--------------5---------------7--------------------|
Ab|--3------3-------5-----6--------3-------3-------5--------6-----------|
Eb|---------1-------------4----------------1----------------4-----------|


Repeat intro 4X
Do stanza 1
Adlib..

                                                                     FiNiSh!!!
Comments