Wolfgang - Message In The Bottle Chords & Tabs

 

Message In The Bottle Chords & Tabs

Wolfgang Chords & Tabs

Version: 1 Type: Tab 0 ratings
1 star 2 stars 3 stars 4 stars 5 stars
comments

Message In The Bottle Tab

   
Original artist:Sting
revived arange by: wolfgang
tab by:leander v. m.

INTRO:
E|--------------------------------------7-----------3-6^8--|
B|--2\4--7^9--7-5--5/3--2\4--4--2\4-7--4-7^9-7-3\5---------|
G|--3\5-------6-4--4/2--3\5--5--3\5-8--5-------------------|

E|--6-5-3--------------------------------------------------|
B|--------3-3h5------3--3h5p3---3--4-2-4------6^8-6-5h6-6/-|
G|---------------4-4----------5----5-3-5--3-5--------------|

E|----------------9p7-7---------------------------------------------------|
B|------7h9p7-7---------10p9p7--------------------------------------------|
G|--7h9---------9--------------10p9p7-------------7-----7-----------------|
D|------------------------------------12p9--7\9-9---7\9---7-9-7-9-9-7-9\--|

STANZA:B-G-A-Em
G|----------------0-|                 
D|--4---2-------2---|
A|--2-5-0-2--2------|
E|----3---0---------|

REFRAIN:G-C-D-E-C
G|------------|
D|----5-7---5-|
A|--5-3-5-2-3-|
E|--3-----0---|

CHORUS:B-G-F#
G|--4-----------4-----3--------|
D|--4-5-4-4---5-----4----------|
A|--2-5-4-4-5-----4-----2-0-2--|
E|----3-2-2-3-----2-----0-0-0--|

SOLO:
B|--------11----------------------------------------------|
G|--10^12----10-10h12-------------------10h12-------------|
D|--------------------13-------10-10-13-------13-------10-|
G|-----------------------13-13-------------------13-13----|
[ Tab from: http://www.guitartabs.cc/tabs/w/wolfgang/message_in_the_bottle_tab.html ]
B|---------------------------------9h11-------8-----------|
G|-----------8-8-10-10-10\12-12-12------12-10---10--------|
D|--11-11-13----------------------------------------------|
                            |--COUPLE OF TIMES--|
E|--------------------------------------------12----------|
B|--------13-13-------13-13-13^15-13-13-12-10-------------|
G|--12^14-------12^14-------12^14-------------------------|

E|----------10-10-13-15-15^17-15^17-15^17-12--------------|
B|--8\10-13-----------------------------------------------|
G|--------------------------------------------------------|
 
E|--15^17-12----------------------------------------------|
B|-----------15^17-15-13-12-------------------------------|
G|--------------------------15p14p12----12-14-14-14-------|
D|-----------------------------------14-------------------|

E|--------13-------13-13-------------------------------------|
B|--------13-------13-13-11^13-13-12-12-10-------------------|
G|--12^14----12^14-------------------------13p12p10----10-12-|
D|--------------------------------------------------12-------|

E|---------------------------||--------------------------------|
B|--13-----------------------||--13----------------------------|
G|--12^14-13-13p12----10-12--||--12^14-13-13p12-10-------------|
D|-----------------12--------||--------------------12p10----10-|
A|-------------------------------------------------------12----|

E|--------13---------------------------------------------------|
B|--13^---13-13----15^17-15^17-15^17-15^13---------------------|
G|--12^14----12^14---------------------------------------------|

D|-----------------------||----------------||-----------7-4-7--|
A|------4-5-----4-5------||------4-5-7-5-4-||-----4-5-7--------|
E|--5-7-----5-7----------||--5-7-----------||-5-7--------------|

                                 END 
                              CoR@ T!RA
                             james bading
tab by:leander marvin v. macutay
Comments