Wolfgang - Mata Ng Diyos Chords & Tabs

 

Mata Ng Diyos Chords & Tabs

Wolfgang Chords & Tabs

Version: 3 Type: Tab 0 ratings
1 star 2 stars 3 stars 4 stars 5 stars
comments

Mata Ng Diyos Tab

                        "MATA NG DIYOS" BY WOLFGANG
                         transcribed by: freongang
                    visit me at: freongang_81@yahoo.com   
                             freongang_08@yahoo.com

  intro:
  bass riffs X2
e|---------------------|
B|---------------------|
G|---------------------|
D|---------------------|
A|--7------------------|
E|-----8---10---7------|

     guitar riffs (harmonic)X2
e|--------------------------------------------------|
B|------12----------12-----------12---------12------|
G|---12----12----12----12-----12----12---12----12---|
D|--------------------------------------------------|
A|-7------------------------------------------------|
E|-------------8------------10----------7-----------|

  bass riffs: sa pagmulat ng aking mata...
e|--------------------------------|
B|--------------------------------|
G|--------------------------------|
D|--------------------------------|
A|---3-5-6---6-5-3-------3-5------|
E|-3---------------3-4-5-----3----|
  guitar riffs X4
e|---------------------------------------------------------|
B|---------------------------------------------------------|
G|---------------------------------------------------5-----|
D|-5-<5>-<5>-<5>-5-5-<5>-<5>-<5>-5-5-<5>-<5>-<5>-5-5-5-0-5-|
A|-5-<5>-<5>-<5>-5-5-<5>-<5>-<5>-5-5-<5>-<5>-<5>-5-5-3-0-5-|
E|-3-<3>-<3>-<3>-3-3-<3>-<3>-<3>-3-3-<3>-<3>-<3>-3-3-----3-|
    then proceed here
e|-----------0-------|
B|---------0---------|
G|-------------------|
D|-------------------|
A|-----5-------------|
E|--3----------------|

 bass riffs: sa tabi ng ilog...
e|--------------------------------|
B|--------------------------------|
G|--------------------------------|
D|--------------------------------|
A|---3-5-6---6-5-3-------3-5------|
E|-3---------------3-4-5-----3----|
  guitar riffs X4
e|---------------------------------------------------------|
B|---------------------------------------------------------|
G|---------------------------------------------------5-----|
D|-5-<5>-<5>-<5>-5-5-<5>-<5>-<5>-5-5-<5>-<5>-<5>-5-5-5-0-5-|
A|-5-<5>-<5>-<5>-5-5-<5>-<5>-<5>-5-5-<5>-<5>-<5>-5-5-3-0-5-|
E|-3-<3>-<3>-<3>-3-3-<3>-<3>-<3>-3-3-<3>-<3>-<3>-3-3-----3-|
[ Tab from: http://www.guitartabs.cc/tabs/w/wolfgang/mata_ng_diyos_tab_ver_3.html ]
 bumigat bigla aking dibdib.....
e|---------------------|
B|---------------------|
G|---------------------|  do it slowly as many times
D|------5------5-------|
A|----5------3---------|
E|--3------4-----------|
 sa pagtitig ng kanyang mata.....
e|-----------------------------|
B|-----------------------------|
G|-----------------------------|
D|-----5------5-----5------5---| fast tune as many times
A|---5------3-----3------3-----|
E|-3------4-----5------4-------|
  
    
  at hindi ko maalala.....
e|--------------------------------------------------|
B|--------------------------------------------------|
G|-------------7-7-7/9-9-9-9-9-5-5-5-5-5-5-7-7-7-7--|
D|-5-5-5-5-5-5-7-7-7/9-9-9-9-9-5-5-5-5-5-5-7-7-7-7--|
A|-5-5-5-5-5-5-5-5-5/7-7-7-7-7-3-3-3-3-3-3-5-5-5-5--|
E|-3-3-3-3-3-3--------------------------------------|
 
 solo:
e|---------------------------------|
B|----2-4---6-8---10-12---13-------|
G|-3b-----6------------------12b---|
D|---------------------------------|
A|---------------------------------|
E|---------------------------------|

e|----^----------------------------|
B|--13-15--13b--11b-(tremolo)------|
G|---------------------------------|
D|---------------------------------|
A|---------------------------------|
E|---------------------------------|

e|---------------------------------|
B|---------------------------------|
G|----9b-9b-11-12b-12b-11----------|
D|-10------------------------------|
A|---------------------------------|
E|---------------------------------|

e|---------------------------------|
B|-9-7---7-------------------------|
G|-----9---10-7-8---7-5-7----------|
D|------------------------7-5------|
A|---------------------------------|
E|---------------------------------|

e|-------------------------------------------------------------|
B|--------------------------------------------------12-14-15b--|
G|--------------------------------------------11-10------------|
D|-3/5-5-5-5/3-3----------------3/10-10-10-10------------------|
A|----------------3/5-5-5-5/3-3--------------------------------|
E|-------------------------------------------------------------|

e|-17-14----14----------------------------------------------------------|
B|-------17----14-16-14----14----14-17-16-15-19-21b-21b-21b-21b-21b-21b-|
G|----------------------17----17----------------------------------------|
D|----------------------------------------------------------------------|
A|----------------------------------------------------------------------|
E|----------------------------------------------------------------------|
 
final riff
    inalok ako ng isang ahas...
e|-----------------|
B|-----------------|
G|-----------------|
D|------5------5---|  do it slowly as many times
A|----3------3-----|
E|--4------5-------|

          FOR THE TRIBUTE OF WOLFGANG..... I MISS YOUR GIGS  
     PERFORMANCES!!! HOPE TO SEE ONE YOU GUYS PERFORMING GREAT?!?!
Comments