Wolfgang - Mata Ng Diyos Chords & Tabs

 

Mata Ng Diyos Chords & Tabs

Wolfgang Chords & Tabs

Version: 2 Type: Bass Tab 0 ratings
1 star 2 stars 3 stars 4 stars 5 stars
comments

Mata Ng Diyos Bass Tab

   
Mata ng Diyos Bass Tab

Artist: Wolfgang

Tabbed by: Regan 

Tunning:(Eb Ab Db Gb)

Intro:
|---------------|
|---------------|
|-----6---3-----| 2x
|-3-----------5-|

Verse:
|-------------------------------|
|-------------------------------|
|-----3-5-6---6-5-3----------3-5| 4x
|-3-------------------3-4-5-----|

|-------------------------------|
|-------------------------------|
|---------------------------1---| 4x
|-1--000--1--000--1--000--1---2-|

then do the intro...

|-------------------------------|
|-------------------------------|
|-----3-5-6---6-5-3----------3-5| 4x
|-3-------------------3-4-5-----|

|-------------------------------|
|-------------------------------|
|---------------------------1---| 4x
|-1--000--1--000--1--000--1---2-|

pre chorus:(1:40)
|---------------------|
|---------------------|
|---------------------| 10x
|-3--3-4--4-5--5-4--4-|

Chorus:(2:12)
|-----------------------------------------------|
|-------------------------------------------3-5-|
|----------3-5-6-6666-3-5------------3-3333-----|
|-3-3333------------------6-6666-5-6------------|
[ Tab from: http://www.guitartabs.cc/tabs/w/wolfgang/mata_ng_diyos_btab_ver_2.html ]
|-----------------------------------------------|
|-----------------------------------------------|
|----------3-5-6-6666-3-6-----------3---------5-|
|-3-3333------------------6-6666-5-----5--3-----|

|-----------------------------------------------|
|-------------------------------------------3-5-|
|----------3-5-6-6666-3-5------------3-3333-----|
|-3-3333------------------6-6666-5-6------------|

|-----------------------------------------------|
|-------------------------------------------3-5-|
|----------3-5-6-6666-3-5------------3-3333-----|
|-3-3333------------------6-6666-5-6------------|

Guitar solo:(2:36)
Play the same as chorus...

(3:00)
|-------------------------------|
|-------------------------------|
|---------------------------1---| 4x
|-1--000--1--000--1--000--1---2-|

Play Pre chorus:(3:13)...

Then play chorus:(3:36)...

In addition to the last chorus...
|-----------------------------------------------|
|-------------------------------------------3-5-|
|----------3-5-6-6666-3-5------------5-5555-----|
|-3-3333------------------6-6666-6-3------------|
i'm not really sure of this part.
|-------------------------------------------------| 
|-------------------------------------------------|
|----------3-5-6-6666-3-5------------5-5555-------|
|-3-3333------------------6-6666-6-3------------3-|

Ends with the guitar...

Yun lang. Tapos na!!! this is my 1st tab. 

Pls. rate this tab.
Comments