Wolfgang - Mata Ng Diyos Chords & Tabs

 

Mata Ng Diyos Chords & Tabs

Wolfgang Chords & Tabs

Version: 1 Type: Bass Tab 0 ratings
1 star 2 stars 3 stars 4 stars 5 stars
comments

Mata Ng Diyos Bass Tab


INTRO
G|-------------------------------------------------------------------------------|
D|-------------------------------------------------------------------------------|
A|----------6------3-------------------------------------------------------------|
E|-----3----------------5--------------------------------------------------------|

STANZA
G|------------------------------------------------------------------------------------|
D|------------------------------------------------------------------------------------|
A|----------------5--6----6---5-----5--------------3---5------------------------------|
E|------3-----6------------------------3--4--5-----------3----------------------------|
[ Tab from: http://www.guitartabs.cc/tabs/w/wolfgang/mata_ng_diyos_btab.html ]
G|---------------------------------------------------------------------|
D|---------------------------------------------------------------------|
A|------------------------5--6---6-6--6-6-----6--5-------1---1---1--1--|
E|------3---3---3-----6------------------------------------------------|

G|-----------------------------------------------------------------------------------|
D|-----------------------------------------------------------------------------------|
A|------3-----3----3----3----3-5-----------------------------------------------------|
E|-----------------------------------3-----------------------------------------------|

for comments and suggestions please e mail me @ EightRocks214@hotmail.com...this was my first tab...
Comments