Wolfgang - Iou Chords & Tabs

 

Iou Chords & Tabs

Wolfgang Chords & Tabs

Version: 1 Type: Tab 0 ratings
1 star 2 stars 3 stars 4 stars 5 stars
comments

Iou Tab

                            "I.O.U." BY WOLFGANG
                          transcribed by:freongang
                     visit me at: freongang_81@yahoo.com
                            freongang_08@yahoo.com
 
  
 intro:
e|-----------------------------------------------|
B|-----------------------------------------------|
G|---------------------------11-------14-15-13---|
D|--7-10----6-7-6------12-13---------------------|
A|-----------------------------------------------|
E|-----------------------------------------------|
[ Tab from: http://www.guitartabs.cc/tabs/w/wolfgang/iou_tab.html ]
 wake up child...
e|----------------------------------------|
B|----------------------------------------|
G|----------------------------------------|
D|---------5-6-----------5-6-5------------|
A|---------5-6-----------5-6-5------------|
E|--5-5-5----------5-5-5------------------|
    ..........................
 i own you...
e|---------------------------------------|
B|---------------------------------------|
G|---------------------------------------|
D|--------6--------6----7----------------|
A|--------6--------6------7-5-4----------|
E|--5-5-5----5-5-5-----------------------|
        ....................
 
e|--------8------------------10----------|
B|-----8-----8-----------10------10------|
G|---------------------------------------|
D|--6----------------8-------------------|
A|---------------------------------------|
E|---------------------------------------|

      hehehe... sori hindi sya tapos..... pang soundcheck ko lng nmn kc 
      'to eh, hayaan nyo kpg gnanahan ulit ako... tatapusin ko n yan
                para sa wolfgang nmn to eh..... tnx!!!
                          PEACE TAYO.............
Comments