Wolfgang - Ilang Alon Ang Dala Chords & Tabs

 

Ilang Alon Ang Dala Chords & Tabs

Wolfgang Chords & Tabs

Version: 1 Type: Tab 0 ratings
1 star 2 stars 3 stars 4 stars 5 stars
comments

Ilang Alon Ang Dala Tab

                  "ILANG ALON ANG DALA" BY WOLFGANG
                      transcribed by: freongang
                 visit me at: freongang_81@yahoo.com
                        freongang_08@yahoo.com

               
                    "FOR WOLFGANG FANS USE ONLY"

 intro:
e|--------0----------5-------|
B|-----0-----0----5----------|
G|---0----------3------------|
D|---------------------------|
A|---------------------------|
E|---------------------------|
  
 kumupas na ang paningin...
e|--------0-------------------------|
B|-----0-----0----------------------|
G|---0----------3-------------------|
D|------------------------------7---|
A|------------------------------7---|
E|--------------------------5-7-5---|
[ Tab from: http://www.guitartabs.cc/tabs/w/wolfgang/ilang_alon_ang_dala_tab.html ]
 walang bituin na matanaw... X4
e|----------------------------------|
B|----------------------------------|
G|----------------5-----------------|
D|--7-------7-7---5--7-7------------|
A|--7-------7-7---5--7-7-------2b---|
E|--5-------5-5-6----5-5--6---------|
  
  ang diyos ba'y nakalimot... X4
e|--------------------------------------|
B|--------------------------------------|
G|--------------------------------------|
D|--------------------------------------|
A|-------------2-2-2-2-----------4--2---|
E|-4---4-4-4-4----------6-6-6-6---------|
 
 naubos na kaya... X2
e|--------------------------0--  -----------------------------|
B|------------------------0----  --------------------------0--|
G|-----------------------------  -----------------------0-----|
D|-----7------9-------11-------  -----7------9-------11-------|
A|---7------9------11----------  ---7------9------11----------|
E|-5------7------9-------------  -5------7------9-------------|

               X2
e|--------------------------------------|
B|--------------------------------------|
G|--------------------------------------|
D|--------------------------------------|
A|-------------2-2-2-2-----------4--2---|
E|-4---4-4-4-4----------6-6-6-6---------|

  ang madla ay tumingala
e|----------------------------------------------|
B|----------------------------------------------|
G|-------9-9-9--7/12-12-12-12-12-10-10-10-10-9--|
D|-9-9-9-9-9-9----------------------------------|
A|-9-9-9-7-7-7----------------------------------|
E|-7-7-7----------------------------------------|

 sa lihim na ginawa
e|------------------------|
B|---------------9-9-9----|
G|---------9-9-9-9-9-9----|
D|---9-9-9-9-9-9-7-7-7----|
A|---9-9-9-7-7-7----------|
E|---7-7-7----------------|

  isang butil na sala
e|----------------------------------------------|
B|----------------------------------------------|
G|-------9-9-9--7/12-12-12-12-12-10-10-10-10-9--|
D|-9-9-9-9-9-9----------------------------------|
A|-9-9-9-7-7-7----------------------------------|
E|-7-7-7----------------------------------------|
  
  ilang alon ang dala
e|----------------------------|
B|---------------9-9-9----11b-|
G|---------9-9-9-9-9-9--9-----|
D|---9-9-9-9-9-9-7-7-7--------|
A|---9-9-9-7-7-7--------------|
E|---7-7-7--------------------|

 final riffs
   tahimik na ang paligid...
e|----------------------------------|
B|----------------------------------|
G|----------------------------------|
D|----------------------------------|
A|----------------------------------|
E|--5-6---4-5-4----3-4-3----2-3-----|

                       "FOR WOLFGANG FANS USE ONLY"
Comments