Wolfgang - Hell Looks Chords & Tabs

 

Hell Looks Chords & Tabs

Wolfgang Chords & Tabs

Version: 1 Type: Tab 0 ratings
1 star 2 stars 3 stars 4 stars 5 stars
comments

Hell Looks Tab

                         "HELL LOOKS" BY WOLFGANG
                          transcribed by: freon
                    visit me at:freongang_81@yahoo.com
                         freongang_08@yahoo.com

          Note: FOR THOSE WHO EMAIL ME AND REQUESTING FOR TABS... 
                   "PUTANG INA SALAMAT SA TIWALA NYO?!?!"


 can you see me watching hell looks... X4
e|---------------------------------|
B|---------------------------------|
G|---------------------------------| (do it fast)
D|--9-9-7---5-5-5-5-6-4------------|
A|--7-7-5-7-3-3-3-3-4-2------------|
E|--------5------------------------|

 i onto you.... X4
e|---------------------------------------|
B|---------------------------------------|
G|--10--8--10--8--11--8------------------|
D|--9---7--9---7--10--7------------------|
A|---------------------------------------|
E|---------------------------------------|
[ Tab from: http://www.guitartabs.cc/tabs/w/wolfgang/hell_looks_tab.html ]
 adlib:
e|-----14-  
B|-12-----  
G|--------  
D|--------  
A|--------  
E|--------  
                 X4
e|-14-14-14-14-14-14-12-12-12-12-12-12-------------------------------------|
B|-12-12-12-12-12-12-12-12-12-12-12-12-------------------------------------|
G|-------------------------------------13-13-13-13-13-13-11-11-11-11-11-11-|
D|-------------------------------------13-13-13-13-13-13-11-11-11-11-11-11-|
A|-------------------------------------------------------------------------|
E|-------------------------------------------------------------------------|

e|------------------------------------------------------------|
B|------------------------------------------------------------|
G|------------------------------------------------------------|
D|------------------------------------------------------------|
A|------------------------------------------------------------|
E|-0-0-0-0-0-0-0-0-0-0-0-0-0-0-0-0-0-0-0-0-0-0-0-0-0-0-0-0-0--|

                 X4   (do it fast)
e|--------------------------------------------------|
B|--------------------------------------------------|
G|--------------------------------------------------|
D|--------------------------------------------------|
A|--------------1----0-1----0-1-4----3-4-6-4-3-0----|
E|--0-1-2---1-3-------------------------------------|

               <<>>
Comments