Wolfgang - Halik Ni Hudas Chords & Tabs

 

Halik Ni Hudas Chords & Tabs

Wolfgang Chords & Tabs

Version: 3 Type: Tab 0 ratings
1 star 2 stars 3 stars 4 stars 5 stars
comments

Halik Ni Hudas Tab

   
-------------------------------------------------------------------------------
			     HALIK NI HUDAS - WOLF GANG
-------------------------------------------------------------------------------
Tabbed by:TOTO CRESPO
Email:GRANDMASTERCOOL8@YAHOO.COM

Tuning:TUNEDOWN HALFSTEP LOWER 




intro

e|-------------------------------------------|
B|-------------------------------------------|
G|-------------------------------------------|  4x 
D|----5/7-----7---7---------------7----------|
A|----5/7-----7---7--------5--7-------7---5--|
E|----3/5-x-x-5-x-5----8---------------------|




verse

      G5 A5

e|-------------------------------------------|
B|-------------------------------------------|
G|-------------------------------------------|  4x 
D|----5/7-----7---7---------------7----------|
A|----5/7-----7---7--------5--7-------7---5--|
E|----3/5-x-x-5-x-5----8---------------------|

    mga asong naloloko....
    ubos na ang mga bayani.....
    sumunod samga utos.....






	 F#5

e|---------------------------------------------------------------------------|
B|---------------------------------------------------------------------------|
G|---------------------------------------------------------------------------|
D|-------4---4---4--------------------4---4---4--------------3--2--0---------|
A|-------4---4---4--4----4-2-0--------4---4---4--------2--5------------------|
E|---0/2-2-x-2-x-2----2--------2--0/2-2-x-2-x-2--3--5------------------------|

     sa bawat tabi at sulok.....
     kukunin nya ang lahat sa iyo.....		     to all wolves out there... here
     kaibigang nakaitim.....			     another song from wolfgang.halik
						     ni hudas.PARA TO SA MGA HUDAS.
						     medyo mabilis ang kanta pero ang
						     sarap i-jam. i think i hit the
						     right notes maliban sa solo gtr
						     parts. medyo malabo kasi ung copy
      G5 A5					     ko ng song. ok lang yon. pwede ka
						     naman magimbento di ba? deskarte-
e|-------------------------------------------|	     han mo nalang. sure pag nabuo nyo
B|-------------------------------------------|	     to, mabibingi yung mga hudas dyan
G|-------------------------------------------|  2x   sa tabi tabi. greetings nga pala
D|----5/7-----7---7---------------7----------|	     dyan sa mga tropa ko sa Las Pinas
A|----5/7-----7---7--------5--7-------7---5--|	     kay ever, x-tian, alvin, K, tony,
E|----3/5-x-x-5-x-5----8---------------------|	     tutoy ng arnibal corpse. syempre
						     di ko pwedeng kalimutan sharon and
  nakalubog na sa kabaong.....			     solita sales. mallow. hehehe. si
  pagkatao moy papasukin....			     migs at si mint ng angel radio..
  mapailalim sa kanya.....			     ooh yeah.. remember practice makes
						     perfect. kahit di mo maperfect ok
						     lang yon! basta magpractice....
						     happy playing....gud luck.......

chorus

    A5          G5        A5	

e|---------------------------------------------------------------------------|
B|-------10--10----8---8-----10---10----5h6p5--5-----------------------------|
G|-------9---9-----7---7-----9----9----------7--7-5h7p5----------------------|
D|---7---7---7--5--5---5--7--7----7---------------------7-5------------------|
A|---7-----x----5----x----7-----x--------------------------------------------|
E|---------------------------------------------------------------------------|

   tao sa pangil ng buwaya




    A5          G5        A5              B C    C D  F# G G F# F E
[ Tab from: http://www.guitartabs.cc/tabs/w/wolfgang/halik_ni_hudas_tab_ver_3.html ]
e|---------------------------------------------------------------------------|
B|-------10--10----8---8-----10---10-----------------------------------------|
G|-------9---9-----7---7-----9----9-------4/5----5/7-------------------------|
D|---7---7---7--5--5---5--7--7----7-------4/5----5/7--4/5--5\4--3-2----------|
A|---7-----x----5----x----7-----x---------2/3----3/5--4/5--5\4--3-2----------|
E|----------------------------------------------------2/3--3\2--1-0----------|

    kapangyarihan ng halik ni hudas




adlib
| /  slide up
| \  slide down
| h  hammer-on
| p  pull-off
| ~  vibrato
| +  harmonic
| x  Mute note
| B  bend

e|---------------------------------7-----------------------------------10----|
B|--------8-------8---10^10-10---10-8--------7---8----10---12-----10h12--10--|
G|---7-/9---9-9-9---9----------9------9\(7)--9^--10^--12^--14^---------------|
D|---------------------------------------------------------------------------|
A|---------------------------------------------------------------------------|
E|---------------------------------------------------------------------------|


e|-----10-----10-----10-----12^-12-10-12-10----15^~-15^-12--17^~~--17>-------|
B|---10--10h12--10-10--10h12---------------12--------------------------------|
G|---------------------------------------------------------------------------|
D|---------------------------------------------------------------------------|
A|---------------------------------------------------------------------------|
E|---------------------------------------------------------------------------|


e|---17p16p14--17p16p14--15p14p12--15p14p12--12p11p9--12p11p9--10p9p7--------|
B|--------------------------------------------------------------------10p9p7-|
G|---------------------------------------------------------------------------|
D|---------------------------------------------------------------------------|
A|---------------------------------------------------------------------------|
E|---------------------------------------------------------------------------|


e|---------------------------------------------------------------------------|
B|---------------------------------------------------------------------------|
G|---9-9p7--7----------------------------------------------------------7h(8)-|
D|--------9--7h9-9p7--7-----------------------------------------7h(8)h9------|
A|-------------------9-9p7h9-9p7-5h7-7p5---------5h(6)h7-7h(8)h9-------------|
E|--------------------------------------7-5h(6)h7----------------------------|

                                              palm mute......(trem bar down)
e|---------------------------------------------------------------------------|
B|---------------------------------------------------------------------------|
G|---h9-9-9p7-7----9~-9p7-7--------------------------------------------------|
D|-----------9-9-9-------9-9-9--7^(7)-5--------------------------------------|
A|-----------------------------------7-7-5-7------------------2--------------|
E|--------------------------------------------3-0-0-4-0-0-5-7-0--------------|



riff after the solo


e|---------------------------------------|
B|---------------------------------------|
G|---------------------------------------|
D|---7-----------------------------------| 4x
A|---7--------------2---3----------------|
E|---5----2--3---5---------5--3---5------|

e|-----------------------------------|
B|-----------------------------------|
G|-----------------------------------|
D|-----------------------------------|
A|---0-7-6--0-6-4--0-4-3--0--2--3----|
E|-----------------------------------|


===============================================================================
Comments