Wolfgang - Emperor Worm Chords & Tabs

 

Emperor Worm Chords & Tabs

Wolfgang Chords & Tabs

Version: 1 Type: Tab 0 ratings
1 star 2 stars 3 stars 4 stars 5 stars
comments

Emperor Worm Tab

                     "EMPEROR WORM" by wolfgang
                      transcribed by freongang
                 visit me at: freongang_81@yahoo.com 
                       freongang_08@yahoo.com

 intro:
  i was once of you....
e|-----------------------------|
B|-----------------------------|
G|----^------9-----------------|
D|---7-9-------7---------------|
A|---5-7-----------------------|
E|-0------7--------------------|

 but now you cast the stone...
e|--------------------------------------------------------------------|
B|--------------------------------------------------------------------|
G|----------^-------------------^-------------------------------------|
D|-9-9-9-9-9-10-10-10--9-9-9-9-9-10-10-10--9-9-9-9-9-7-7-7-9-9-9-9-9--|
A|-7-7-7-7-7-8--8--8---7-7-7-7-7--8--8--8--7-7-7-7-7-5-5-5-7-7-7-7-7--|
E|--------------------------------------------------------------------|

 bow down to this emperor worm...
e|----------------------------------|
B|----------------------------------|
G|----------------------------------|
D|-3-------------9-10---------------|
A|-1-0-2-3--2-3--7-8----------------|
E|----------------------------------|
[ Tab from: http://www.guitartabs.cc/tabs/w/wolfgang/emperor_worm_tab.html ]
 solo:
e|--------------------------------------|
B|----------------^------9-10-7---------|
G|-5-5-5-5-5-5-5-5-9--11----------------|
D|--------------------------------------|
A|--------------------------------------|
E|--------------------------------------|

e|---------------------------------------------|
B|-9------------14------------9-10-12-14-15----|
G|---9-7--11-13----------9-11------------------|
D|------------------9-10-----------------------|
A|---------------------------------------------|
E|---------------------------------------------|

e|--------------9b-9-10-12-------12-13-15------|
B|----9-10-9-10------------12-13---------------|
G|-11------------------------------------------|
D|---------------------------------------------|
A|---------------------------------------------|
E|---------------------------------------------|

e|---------------------------------------------|
B|-------12-11-12--14-15-17--19b-19b-19b-------|
G|-15-15---------------------------------------|
D|---------------------------------------------|
A|---------------------------------------------|
E|---------------------------------------------|

e|---------------------------------------------|
B|--------------9-10-12---9-7-9----------------|
G|------9-10-12--------------------------------|
D|-9-10----------------------------------------|
A|---------------------------------------------|
E|---------------------------------------------|

              
           for the memories of the legendary "WOLFGANG"
Comments