Wolfgang - Darkness Fell Chords & Tabs

 

Darkness Fell Chords & Tabs

Wolfgang Chords & Tabs

Version: 3 Type: Tab 0 ratings
1 star 2 stars 3 stars 4 stars 5 stars
comments

Darkness Fell Tab

-----------10--12--10-8-7----------------------------------------------------|
--10---12------------------10-8-7-----777b--108---87------------891087-------|
----------------------------------9-------------9------97--------------------|
-----------------------------------------------------------97h9--------------|
-----------------------------------------------------------------------------|
-----------------------------------------------------------------------------|
[ Tab from: http://www.guitartabs.cc/tabs/w/wolfgang/darkness_fell_tab_ver_3.html ]
----------------------------------------------10b------------78--------------|
-97--------------------------------------1087-------878787-10----1087--------|
----97------------------------78-----78-----------9--------------------9---7-|
-------97------------797---79----9---------------------------------------9---|
----------97----7810-----10--------------------------------------------------|
-------------8---------------------------------------------------------------|

ibibigay ko lahat ang tamang adlib pahenge mo na ako ng tab ng kaleidoscope world by 
m. send nyo na lang sa email addd ko bobothewiseman2004@yahoo.com
Comments