Wolfgang - Cast Of Clown Chords & Tabs

 

Cast Of Clown Chords & Tabs

Wolfgang Chords & Tabs

Version: 1 Type: Tab 0 ratings
1 star 2 stars 3 stars 4 stars 5 stars
comments

Cast Of Clown Tab

 

song:cast of clowns
album:wolfgang
artist:wolfgang    
tabbed by:thOn

tune guitar 1/2 step lower

intro/stanza:
Eb|----------0--------||------0-----------|
Bb|----5---2---2------||------1-----------|
Gb|--5---0-0----------||------0-----------|
Db|--5-----0-----0----||----2-------------|
Ab|--3-------------0--||--3---------------|
Eb|-------------------||---------3-3-2-0--|

finalle:
Eb|--------------------------------|
Bb|--------------------------------|
Gb|--------------------------------|
Db|----12-x-11-x--7-7/9---9--------|
Ab|----10-x--9-x--5-5/7---7--------|
Eb|--0--0-x--0-x--0-0/0-0-0-0-0-0--|
     .                  .   . . .

solo:
Eb|-----------------------------------------|
Bb|--------------------12-------------------|
Gb|--------9-9------------------------------|
Db|--7/9-9-----9/12-12----12p10p9h10p9-7-9--|
Ab|-----------------------------------------|
Eb|-----------------------------------------|

Eb|-------------------------7-8-7--------------------|
Bb|------------------7-8-10-------10-9-7-------------|
Gb|------7h9p7---7h9---------------------9-7---7-9\--|
Db|--7h9-------9-----------------------------9-------|
Ab|--------------------------------------------------|
Eb|--------------------------------------------------|

Eb|---------------------13-15-11--------------------------------|
Bb|---------13-11h13h15----------13-14p13p11--------------------|
Gb|--\12h14----------------------------------15p13p11----11-13--|
Db|---------------------------------------------------13--------|
Ab|-------------------------------------------------------------|
Eb|-------------------------------------------------------------|
[ Tab from: http://www.guitartabs.cc/tabs/w/wolfgang/cast_of_clown_tab.html ]
Eb|---------------------------------------------------------------|
Bb|--7-7-7/9-9-9/11-11-11/13-13-13/15-15-15/17-17-17/19-19-19/21--|
Gb|--7-7-7/9-9-9/11-11-11/13-13-13/15-15-15/17-17-17/19-19-19/20--|
Db|---------------------------------------------------------------|
Ab|---------------------------------------------------------------|
Eb|---------------------------------------------------------------|

Eb|---------------------------------------------------------------|
Bb|--18-16-18-18^20-18^20-16h18p16--------------------------------|
Gb|--------------------------------19-19h20-19h20p19p17----17-----|
Db|-----------------------------------------------------19----19--|
Ab|---------------------------------------------------------------|
Eb|---------------------------------------------------------------|

Eb|---------------------------------------------------------------|
Bb|---------------------------------------------------------------|
Gb|--21p19p17-----------------------------------------------------|
Db|-----------21p19p17-------17-------17-19-19^21-17h19p17-17p16--|
Ab|--------------------19-19----19-19-----------------------------|
Eb|---------------------------------------------------------------|

Eb|------------------------------------------------------|
Bb|------------------------------------------------------|
Gb|------------------------------------------------------|
Db|-----------------------------------------15h17p15-----|
Ab|--17-17p15----15-------15h17p15----15h17----------17--|
Eb|-----------17----15h17----------17--------------------|

Eb|-------------------------------|
Bb|-------------------------------|
Gb|-------------------------------|
Db|--15h17h19p17p15---------------|
Ab|-----------------17p15---------|
Eb|-----------------------17p15\--|

Eb|----------------------------------------------------|
Bb|----------------------------------------------------|
Gb|--------------------------------------------7h9h11--|
Db|------------------------------7h9h10-7h9h10---------|
Ab|---------7h9h10--------7h9h10-----------------------|
Eb|--7h9h10--------7h9h10------------------------------|
(do this fast)
Eb|------------------------------------|
Bb|------------------------------------|
Gb|--11p9p7----------------------------|
Db|---------10p9p7----------------2~~--|
Ab|----------------10p9p7---------2~~--|
Eb|-----------------------10p9p7--0~~--|


 
 


Comments