Wolfgang - Bow Unto Thee Chords & Tabs

 

Bow Unto Thee Chords & Tabs

Wolfgang Chords & Tabs

Version: 1 Type: Tab 0 ratings
1 star 2 stars 3 stars 4 stars 5 stars
comments

Bow Unto Thee Tab

   
song:bow unto thee
album:black mantra
artist:wolfgang
tab by:leander m.
tune:Eb Bb Gb Db Ab Eb

intro:
Eb|-----19-------19----------------19---------|
Bb|--19----20-19----17----19-20-19----17------|
Gb|--------------------19---------------------|
Db|-------------------------------------------|
Ab|-------------------------------------------|
Eb|-------------------------------------------|

stanza:
Eb|------------------------------------------------------------------
Bb|------------------------------------------------------------------
Gb|------------------------------------------------------------------
Db|-------------------------------------------------------------0----
Ab|--\-----0--4-----4------0h4-----4-----0h4-------4------0h4-3---4--
Eb|--\-0-0-0--2-2-2-2--0-0-0h2-2-2-2-0-0-0h2--2-2--2--0-0-0h2--------
       . .      . .    . .     . .   . .      . .   
--||---------------|
--||---------------|
--||---------------|
--||----------4-5--|
--||------0h4-4-3--|
--||--0-0-0h2-2----|
      . .

chorus:..bow unto thee, bow unto thee, another vicious cycle call the birds and the beast yeah!
Eb|---------------------------|        |-----------|
Bb|---------------------------|        |-----------|
Gb|----9-3-2----9-2----9-3-2--|(repeat)|----9-6-5--|
Db|----9-3-2----9-2----9-3-2--|        |----9-7-6--|
Ab|----7-1-0----7-0----7-1-0--|        |----7-7-6--|
Eb|--0--------0------0--------|        |--0---5-4--|

Eb|-----------------------------------------|
Bb|-----------------------------------------|
Gb|-----------------------------------------|(repeat 4x)
Db|------------------------4-3--------------|
Ab|----------------------0-2-1-----5--------|
Eb|--0-0-0-0-0-0-0-0-0-0-------0-0---0-0-3--|
     . . . . . . . . . .       . .   . .
[ Tab from: http://www.guitartabs.cc/tabs/w/wolfgang/bow_unto_thee_tab.html ]
riff before solo:(guitar II)
Eb|-----------|-----------------|-----------------|
Bb|-----------|-----------------|-----------------|
Gb|-----------|-----------------|-----------------|
Db|-----------|-----------------|-----------------|
Ab|-----------|-----------------|------------0h4--|
Eb|--3-0-0-2--|--3-3-0-2-0-0-2--|--3-3-0-0-0-0h2--|
       . .       . . . . . . .     . . . . . .=
repeat stanza when solo is doing

solo:(with wah pedal)
Eb|--12/15\-----12h15p12/--------------------|
Bb|---------\15--------------12-14-15-12-----|
Gb|-----------------------15-------------15--|
Db|------------------------------------------|
Ab|------------------------------------------|
Eb|------------------------------------------|

Eb|----------------------------------------------------------------------------|
Bb|----------------------------------------------------------------------------|
Gb|-12-12----12-------------------------15-14-12-14-------------------12^14----|
Db|-------14----14-12-12-12h14-14-14-14-------------14-12/14-14-14-14-------14-|
Ab|----------------------------------------------------------------------------|
Eb|----------------------------------------------------------------------------|
(when the bent is done hit wah pedal in every bent)
Eb|------------------------------------------------------------------------|
Bb|--15----15-15----15-15----15-15----15-15^16-15-15^16-15-15^16-15-15^16--|
Gb|--14^16----14^16----14^16----14^16----14^16----14^16----14^16----14^16--|
Db|------------------------------------------------------------------------|
Ab|------------------------------------------------------------------------|
Eb|------------------------------------------------------------------------|

repeat stanza
repeat chorus 

stop tearing with my heart(FINALE)
Eb|----------------------||-----|
Bb|----------------------||-----|
Gb|----------------------||-----|
Db|----4-3------5--------||-----|
Ab|--0-2-1--0-0---0-0-3--||--2--|
Eb|----------------------||--0--|
            . .   . .
tab by:leander m.
       the end
       Cor@_t!r@
Comments