Wolfgang - Atomica Chords & Tabs

 

Atomica Chords & Tabs

Wolfgang Chords & Tabs

Version: 2 Type: Tab 0 ratings
1 star 2 stars 3 stars 4 stars 5 stars
comments

Atomica Tab

SONG:ATOMICA
ARTIST:WOLFGANG
ALBUM:SERVE IN SILENCE
TAB BY:LEANDER V. M.(leander_85@yahoo.com)

INTRO
Eb|--------------(12)-10------------------------------(12)--|
Bb|----------(12)--------(12)----------------(12)-(10)------|
Gb|-----(12)-(12)------------(12)--------(12)(12)-----------|
Db|--12--------------------------(12)-12--------------------|
Ab|--10-------------------------------10--------------------|
Eb|---------------------------------------------------------|

Eb|---------------(12)-10
Bb|----------(12)---------(12)-----------------(9)-(5)-(7)--|
Gb|-----(12)-(12)-------------(12)--------(12)-(9)-(5)-(7)--|
Db|--12---------------------------(12)-12-------------------|
Ab|--10--------------------------------10-------------------|
Eb|---------------------------------------------------------|

Eb|----------------------7\9-9p8-------------------------8\10-10\12-12--|
Bb|------------------7\8---------11-9---------------9-11----------------|
Gb|--7h9P7---9p7-7\9------------------------9-10-12---------------------|
Db|--9-----9--------------------------10\12-----------------------------|
Ab|---------------------------------------------------------------------|
Eb|---------------------------------------------------------------------|
[ Tab from: http://www.guitartabs.cc/tabs/w/wolfgang/atomica_tab_ver_2.html ]
Eb|--------10-12-10-----------------------------------------------------|
Bb|--12-13----------13-12-12h13p12--------------------------------------|
Gb|--------------------------------(12)---------------------------------|
Db|--------------------------------(12)--12h14--------------------------|
Ab|--------------------------------------------15-14-12----12-----------|
Eb|-----------------------------------------------------15--------------|

STANZA
Eb|-------------------|
Bb|-------------------|
Gb|-------------------|
Db|------0---3-----0--|
Ab|----4---1-----3----|
Eb|--3---------1------|
     . .   .   . . 
REFRAIN
Eb|--------------------------------------|
Bb|--------------------------------------|
Gb|--------------------------------------|
Db|------3-3-5-5-10-10-----3-3-5-5--5-3--|
Ab|--5-5-1-1-3-3--8--8-5-5-1-1-3-3--3-1--|
Eb|--3-3---------------3-3---------------|

CHORUS
Eb|---------------------------------------------|
Bb|---------------------------------------------|
Gb|---------------------------------------------|
Db|----------------------------5-5--5-5-5--3-3--|
Ab|--5-5--5-5-5-5-5-5-5-5-5-5--3-3--3-3-3--1-1--|
Eb|--3-3--3-3-3-3-3-3-3-3-3-3-------------------|
          . . . . . .   . . .       . . . 
TAB BY: LEANDER V. M.
STILL WORKING ON SOLO....
                                      END
                                   C0R@_T1R@
Comments