Wolfgang - Atomica Acoustic Chords & Tabs

 

Atomica Acoustic Chords & Tabs

Wolfgang Chords & Tabs

Version: 1 Type: Tab 0 ratings
1 star 2 stars 3 stars 4 stars 5 stars
comments

Atomica Acoustic Tab

   
artist:wolfgang
song:atomica(acoustic)
album:acoustica
tab by:leander_85@yahoo.com
this is my favorite slow rock of wolfgang

THERE SOMETHING IM SURE YOU GUYS KNOW...
INTRO:
Eb|--------------------10----------------12p11-9--------------|
Bb|--------------10-12-----------10-12-----------14-12--------|
Gb|----12p11h12-------------9/12-----------------------12-13--|
Db|-----------------------0-----------------------------------|
Ab|-----------------------------------------------------------|
Eb|--0---------------------------------0----------------------|

Eb|--------------------------(12)-------10-10/12------------------------------|
Bb|------7/8-10-8p7-5--------(12)-10/12--------------7/8-10/12-12^14-10-------|
Gb|----7--------------8-7--------------------------7--------------------10vb--|
Db|--0-------------------------------------------0----------------------------|
Ab|---------------------------------------------------------------------------|
Eb|------------------------0--------------------------------------------------|

Eb|-----------------7h8p7-----------------------|
Bb|----------10-7/8-----------7/8-7---7/8-10-8--|
Gb|----11/12--------------7/9-------9-----------|
Db|---------------------------------------------|
Ab|---------------------------------------------|
Eb|--0------------------------------------------|

RIFF I
Eb|---------------------------------------------|
Bb|--8--8---8---8----8--8-----------------------|
Gb|--7--7---7---7----9--9----9----9-------------|
Db|--9----9---9---9--10---10---10---------------|
Ab|--7----7---7---7--7----7----7----------------|
Eb|---------------------------------------------|

Eb|---------------------------------------------|
Bb|--8----8---8----8--8--8----8----8------------|
Gb|--7----7---7----7--9--9----9----9------------|
Db|--9--9---9---9-----10---10---10---10---------|
Ab|--7--7---7---7-----7----7----7----7----------|
Eb|---------------------------------------------|

Eb|---------------------------------------------|
Bb|--8--8---8---8----8--8----8------------------|
Gb|--7--7---7---7----9--9----9------------------|
Db|--9----9---9---9--10---10---10---------------|
Ab|--7----7---7---7--7----7----7----------------|
Eb|---------------------------------------------|

IT STARTED...
Eb|--------7----------------15p14-12----12------|
Bb|----7-9---------10/12-12----------14----15---|
Gb|--8-------10/12------------------------------|
Db|---------------------------------------------|
Ab|---------------------------------------------|
Eb|---------------------------------------------|

Eb|---------------------------------------------------|
Bb|--8---10-7h8p7---12p11----12----------10-----------|
Gb|--7-7----------9-------13----13----------12h13-10--|
Db|--0-----------------------------10/12--------------|
Ab|---------------------------------------------------|
Eb|---------------------------------------------------|
[ Tab from: http://www.guitartabs.cc/tabs/w/wolfgang/atomica_acoustic_tab.html ]
Eb|--------------10/12--------------------------------|
Bb|--------10/12-------10--------7/8-7---7/8-10-10----|
Gb|--10/12----------------12-7/9-------9--------------|
Db|---------------------------------------------------|
Ab|---------------------------------------------------|
Eb|---------------------------------------------------|
REPEAT RIFF I

stanza
Eb|---------------------------------------------------|
Bb|---------------------------------------------------|
Gb|---------------------------------------------------|
Db|--------0-----3--------0--------0-----3-------0----|
Ab|-----4-----1--------3--------4-----1-------3-------|
Eb|--3--------------1--------3-------------1----------|

refrain-G-Bb-C-F-G-Bb-C-Bb
Eb|--3--1--0--1--|--1--|
Bb|--3--3--1--1--|--3--|
Gb|--0--3--0--2--|--3--|
Db|--0--3--2--3--|--3--|
Ab|--3--1--3--3--|--1--|
Eb|--2--0-----1--|--0--|

chorus-G-F-G-C-Bb(hear the song im tired writng G's there
Eb|--3-3--3-3-3-1-3-3-3-0-1--|
Bb|--3-3--3-3-3-1-3-3-3-1-3--|
Gb|--0-0--0-0-0-2-0-0-0-0-3--|
Db|--0-0--0-0-0-3-0-0-0-2-3--|
Ab|--2-2--2-2-2-3-2-2-2-3-1--|
Eb|--3-3--3-3-3-1-3-3-3-0-0--|
SOLO:
Eb|-------------------------------------------------|
Bb|------10----10-12-10^11----10-13----10^11----10--|
Gb|------10----10-12-10^11----10-12^13-10^11----10--|
Db|--/12----12-------------12----------------12-----|
Ab|-------------------------------------------------|
Eb|-------------------------------------------------|

Eb|--------------------------------------------10--------------------------|
Bb|-----------------------------------10h12p10----10h12p10-----------------|
Gb|-----10-10^12-10^12-10^12-10-10h12----------------------10h12p10----10--|
Db|--12-------------------------------------------------------------12-----|
Ab|------------------------------------------------------------------------|
Eb|------------------------------------------------------------------------|

Eb|-----------------10h12p10-----------------------|
Bb|-----------10h12----------12p10-----------------|
Gb|--10-12/14----------------------14p12p10----10--|
Db|-----------------------------------------12-----|
Ab|------------------------------------------------|
Eb|------------------------------------------------|

Eb|--12----12-------12-------------12-------12--------|
Bb|--12^14----12^14----12^14-12^14----12^14----12^15--|
Gb|---------------------------------------------------|
Db|---------------------------------------------------|
Ab|---------------------------------------------------|
Eb|---------------------------------------------------|

Eb|--------------------------------------------------------------------------1-|
Bb|--14p12p10----------------------------------------------------------------3-|
Gb|-----------10-12-10----10----------10-10-12-10----10-12p10----10-12p10----3-|
Db|--------------------12----12-10/12-------------12----------12----------12-3-|
Ab|--------------------------------------------------------------------------1-|
Eb|--------------------------------------------------------------------------0-|
TAB BY:leander m.
                                    THE_END
                                   COR@_T!R@
thnx for e-mailing me raymund cezar dimalanta just send me the title
of the song and i hopefully do that correctly
Comments