Wolfgang - Arise Chords & Tabs

 

Arise Chords & Tabs

Wolfgang Chords & Tabs

Version: 3 Type: Tab 0 ratings
1 star 2 stars 3 stars 4 stars 5 stars
comments

Arise Tab

   
-------------------------------------------------------------------------------
			    ARISE - WOLFGANG
-------------------------------------------------------------------------------
Tabbed by: toto crespo
Email:grandmastercool8@yahoo.com

Tuning: tunedown halfstep (Eb,Ab,Db,Gb,Bb,Eb)



intro

e|---------------------------------------------------------------------------|
B|---------------------------------------------------------------------------|
G|---------------------------------------------------------------------------|
D|---------------------------------------------------------------------------|
A|---------------------------------------------------------------------------|
E|--00000---33333---55555---77777---00000---33333---55555---33333------------|



e|------------------------------------------------|
B|------------------------------------------------|
G|------------------------------------------------|
D|---------------------------------------------2--|  2x
A|-------------------------------------7---5---2--|
E|--00000---33333----55555---77777-----5---3---0--|




verse

    D E     D E                   A             G

e|------------------------      -----------------------|
B|------------------------      ------10---10------8---|
G|------------------------      ---------9---------7---|
D|---------------------9-- 3x   --7-------------5------|
A|--5/7--7--5/7--7-7-7-7--      --7--------------------|
E|------------------------      -----------------------|

    I Iam the night.......      I am the light gone astray.
    the fear....	        I am the taker of souls.
    shout my name......		be cast to fire
    hold my hand....		coz evil is our lair.




chorus

    E                   A               G           C           A

                        let ring------------]     let ring--------------]

e|-------------------------------------------    ------------------------|
B|---------------------------10---10-------8-    ------------------------|
G|--9---------------------------9----------7-    ------------------------|
D|--9------6------------7---------------5---- 3x ----------10---------7--|
A|--7---9-----7h9--7----7---------------5----    ------10----------7-----|
E|-------------------------------------------    ---8-----------5--------|
  coz evil is our lair.............



   repeat intro riff.



verse

    D E     D E                   A             G

e|------------------------      -----------------------|
B|------------------------      ------10---10------8---|
G|------------------------      ---------9---------7---|
D|---------------------9-- 3x   --7-------------5------|
A|--5/7--7--5/7--7-7-7-7--      --7--------------------|
E|------------------------      -----------------------|
  sentinels of pain........	once again.
  he sent them out........	haunting ur lives.
  pray its good..........	we shall say.
  he is no more......		beside u instead.


[ Tab from: http://www.guitartabs.cc/tabs/w/wolfgang/arise_tab_ver_3.html ]
                                     another song from wolfgang. political
interlude			     in nature. medyo mabilis ung song nd
    				     medyo mahirap pero kaya naman kung 
e|--3----5----6----8----|	     gugustuhin mo. hi to all my friends
B|--3----5----6----8----|	     dyan sa las pinas... kay ola and 
G|--4----6----7----9----|	     sharon. kay jake ng p-nutz, at ung
D|--5----7----8----10---|  6x	     d' pandas jobelle, buhay pa ba kayo? 
A|--5----7----8----10---|	     alvin, ramil, gob. aries at bernard
E|--3----5----6----8----|	     ng ad infinitum. to my former band
				     mates allan, paul, mac2 ng invictus.
Iam the king......		     K, and ryan ng death bite chocolate.
				     dun samga marunong mag transcribe
				     upload mo na yan! wag mong ipagdamot
				     yang talent mo... keep practicing..
				     happy playing... peace V...........

e|---------------------------------------------------------------------------|
B|----------------------------------------------------------------10----8----|
G|----------------------------------------------------------------9-----7----|
D|--9-----------7-----6---------9---7-----9-----------7-----6-----7-----5----|
A|--7-xxx-9-xxx---xxx---xxx-xxx-7---5-----7-xxx-9-xxx---xxx---xxx------------|
E|---------------------------------------------------------------------------|





adlib     (B-C-D-A-B-G-F#-F)

| /  slide up
| \  slide down
| h  hammer-on
| p  pull-off
| ~  vibrato
| +  harmonic
| x  Mute note

e|----------------------------------12---------------------------------14/15-|
B|--12---12---12---12---12----10/12----15p12--15p12-----------------12-------|
G|--14^--14^--14^--14^--14^-----------------14-----14--12h14p12--------------|
D|-------------------------------------------------------------14------------|
A|---------------------------------------------------------------------------|
E|---------------------------------------------------------------------------|


e|--12h14p13-----12-------15^--15^-15^-15^---15p14p12------------------------|
B|------------15----15_13----------------------------15p14p12----------------|
G|-----------------------------------------------------------14p13p12---12---|
D|-------------------------------------------------------------------14---14-|
A|---------------------------------------------------------------------------|
E|---------------------------------------------------------------------------|


e|------------------------7p5_____7p5_____9p7_____9p7______8_____10_____12---|
B|-----------------------------------------------------8/10_10/12__12/15-----|
G|--14^-14p12----12---5/7____7_5/7___7_7/9___7_7/9---------------------------|
D|------------14-------------------------------------------------------------|
A|---------------------------------------------------------------------------|
E|---------------------------------------------------------------------------|


e|--15---15p12---------------------------------------------------------------|
B|------------15-12h15p12---12-----------------------------------------------|
G|-----------------------14---14--12h14p12----12-14--14p12---12~--14p12---12-|
D|-----------------------------------------14-------------14-----------14----|
A|---------------------------------------------------------------------------|
E|---------------------------------------------------------------------------|


e|---------------------------------------------------------------------------|
B|---------------------------------------------------------------------------|
G|---------------------------------------------------------------------------|
D|--14p12-14p12p10-12p10---10-----------------------------------10h12-12p10--|
A|----------------------12---12p10-12p10--8-10--8h10-10/12-10h12-----------12|
E|---------------------------------------------------------------------------|


e|---------------------12*----------7-10p9-7-------------------10h12p10------|
B|-------10h12-12p10-------10p8--8----------10p8----8_10_10/12---------------|
G|--10h12-----------12---------9-----------------9---------------------------|
D|---------------------------------------------------------------------------|
A|---------------------------------------------------------------------------|
E|---------------------------------------------------------------------------|


e|--------------------------------------------|
B|--10h12p10-8h10p8---------------------------|
G|-----------------9-7h9p7--------------------|
D|------------------------9--7h9p7--5h7p5-----|
A|----------------------------------------7---|
E|--------------------------------------------|



     DO THE INTRO, VERSE, AND CHORUS RIFFS ONE MORE TIME TILL THE END.








===============================================================================
Comments