Wolfgang - Anino Chords & Tabs

 

Anino Chords & Tabs

Wolfgang Chords & Tabs

Version: 1 Type: Tab 0 ratings
1 star 2 stars 3 stars 4 stars 5 stars
comments

Anino Tab

                          "ANINO" BY WOLFGANG
                       transcribed by: freongang  
                   visit me at: freongang_81@yahoo.com 
                        freongang_08@yahoo.com

  intro:

e|------5-----------4------------------|
B|--------5--------------------5-------|
G|----------------4---------4----------|
D|---4----------5---------5------------|
A|-5-----------------------------------|
E|-------------------------------------|

e|------6------------4-----------------|
B|--------6----------------------------|
G|----------------4--------------6-----|
D|---4---------5--------------4--------|
A|-5-----------------------5-----------|
E|-------------------------------------|

e|------5------------------------------|
B|--------5-----------6---------6------|
G|-----------------5----------5--------|
D|---4----------4-----------4----------|
A|-5----------------------5------------|
E|-------------------------------------|

e|---------------------------11--------|
B|-------5--------6-------9------------|
G|-----5--------6-------9--------------|
D|---4--------4------------------------|
A|-5-----------------------------------|
E|-------------------------------------|
 
  alisin ang iyong maskara...
         X3               then proceed here
e|--------------------|  ---------------0-----
B|-------8--8----9----|  --------8--8--------- 
G|-------9----9--9----|  --------9----9-------
D|-----9--------------|  -----9---------------
A|---7----------------|  ---7-----------------
E|-0------------------|  -0-------------------

   ligtas nyo ako sa sarili kong anino...
e|-------  ---------  -------  -----------------5-----|
B|-----7-  -----7-7-  -----7-  -----7-7--5---------5--|
G|---9-7-  ---9-7-7-  ---9-7-  ---9-7-7--5----5-------|
D|---9-7-  ---9-7-7-  ---9-7-  ---9-7-7--5--5---------|
A|-7-----  -7-------  -7-----  -7---------------------|
E|-------  ---------  -------  -----------------------|
 
  (adlib) kay dami daming hugis ng salamin...
e|--------------------|
B|--------------8b----|
G|----------8-9-------|
D|---9-9--8-----------
A|-7------------------|
E|--------------------|

e|--10-10---------------------^--------|
B|-------------12-----------10-11-9----|
G|----------------12-------------------|
D|-------------------------------------|
A|-------------------------------------|
E|-------------------------------------|

e|---^-----^---------------------------|
B|--9-10--8-9-7-9-7--------------------|
G|-------------------9-7---------------|
D|-------------------------------------|
A|-------------------------------------|
E|-------------------------------------|
[ Tab from: http://www.guitartabs.cc/tabs/w/wolfgang/anino_tab.html ]
   ligtas nyo ako sa sarili kong anino...
e|-------  ---------  -------  -----------------5-----|
B|-----7-  -----7-7-  -----7-  -----7-7--5---------5--|
G|---9-7-  ---9-7-7-  ---9-7-  ---9-7-7--5----5-------|
D|---9-7-  ---9-7-7-  ---9-7-  ---9-7-7--5--5---------|
A|-7-----  -7-------  -7-----  -7---------------------|
E|-------  ---------  -------  -----------------------|
    
   tangay sa agos... 
e|--------  -------  ---------  -------  -------------|
B|--------  -----7-  -----7-7-  -----7-  -----7-7-----|
G|--------  ---9-7-  ---9-7-7-  ---9-7-  ---9-7-7-----|
D|-9---12-  ---9-7-  ---9-7-7-  ---9-7-  ---9-7-7-----|
A|-7-8-10-  -7-----  -7-------  -7-----  -7-----------|
E|---6----  -------  ---------  -------  -------------|

  kung alam ko lang...
e|--------------------  -----------------|
B|--------------------  -----------------|
G|-9------------------  -----------------|
D|-9--9-9-7-7-5-5-7-9-  --9-9-7-7-5-5----|
A|-7--7-7-5-5-3-3-5-7-  --7-7-5-5-3-3----|
E|--------------------  -----------------|

 solo:
e|-------------12b-----|
B|--10/12--------------|
G|---------10----------|
D|---------------------|
A|---------------------|
E|---------------------|

e|--------------------------------------|
B|-----9-11--12b-12b--15----------15----|
G|-12--9-11--------------14-12-14-------|
D|-10-----------------------------------|
A|--------------------------------------|
E|--------------------------------------|
                             do this part past, pick up and down
e|------------------17-17-17-14-14-14-------------------------------------|
B|-17b-17b-19-17-15-------------------16-16-16-14-14-14-------------------|
G|------------------------------------------------------16-16-16-15-15-15-|
D|------------------------------------------------------------------------|
A|------------------------------------------------------------------------|
E|------------------------------------------------------------------------|

e|------------------------|
B|-14/16-17---------------|
G|----------16---17b-15b--|
D|------(tremolo)---------|
A|------------------------|
E|------------------------|

e|------------^-----^-----^-----^-----^-----^-----^-----|
B|-------18-19-20-19-20-19-20-19-20-19-20-19-20-19-20---|
G|-16-17------------------------------------------------|
D|------------------------------------------------------|
A|------------------------------------------------------|
E|------------------------------------------------------|

 after solo:
e|--------------------------------------------|
B|--------------------------------------------|
G|--------9-----------------------------------|
D|--9-----7--------7-8-9----------------------|
A|--7--8-----------5-6-7--9--8----------------|
E|-----6------------------7--6----------------|

                hey..... wolfgang, i miss this song in live performance
                      nasan na ba ang anino ng wolfgang.....tnx!!!
Comments