Wolf Parade - Modern World Chords & Tabs

 

Modern World Chords & Tabs

Wolf Parade Chords & Tabs

Version: 2 Type: Tab 0 ratings
1 star 2 stars 3 stars 4 stars 5 stars
comments

Modern World Tab

   
-----------------------------------------------------------------------
			     Modern World Ė Wolf Parade
-----------------------------------------------------------------------
Tabbed by: Jarrod Nixon
Email: nixonjalltheway@yahoo.com

Tuning: normal
This isnít the whole song; this is just that really incredible rift that is played 
the second half of the song. The one that was put up already was a bunch of crap- this is how 
really is
e|---------------------------------------------------------------------|
B|-------------------------------------6-------------------------------|
G|--------------------------------7------------------------------------|
D|---3------5--7----3------7---8--------7------------------------------|
A|---------------------------------------------------------------------|
E|-1----3/5--------------5---------------------------------------------|
[ Tab from: http://www.guitartabs.cc/tabs/w/wolf_parade/modern_world_tab_ver_2.html ]
e|---------------------------------------------------------------------|
B|-------------------------------------6-------------------------------|
G|--------------------------------7------------------------------------|
D|---3------5--7----3------7---8--------7------------------------------|
A|---------------------------------------------------------------------|
E|-1----3/5--------------5---------------------------------------------|

e|---------------------------------------------------------------------|
B|-------------------------------------6-------------------------------|
G|--------------------------------7------------------------------------|
D|---3------5--7----3------7---8--------7------------------------------|
A|---------------------------------------------------------------------|
E|-1----3/5--------------5---------------------------------------------|

e|---------------------------------------------------------------------|
B|-------------------------------------6-------------------------------|
G|--------------------------------7------------------------------------|
D|---3------5--7----3------7---8--------7------------------------------|
A|---------------------------------------------------------------------|
E|-1----3/5--------------5---------------------------------------------|

| /  slide up
| \  slide down
| h  hammer-on
| p  pull-off
| ~  vibrato
| +  harmonic
| x  Mute note
===============================================================================

Rate it well; this was sort of hard to make, as it was my first tab and my predicessor 
such a shit job making it. I based none of this tab on his efforts
Comments