Wolf Parade - Fine Young Cannibals Chords & Tabs

 

Fine Young Cannibals Chords & Tabs

Wolf Parade Chords & Tabs

Version: 1 Type: Tab 0 ratings
1 star 2 stars 3 stars 4 stars 5 stars
comments

Fine Young Cannibals Tab

   
Wolf Parade
Fine Young Cannibals
At Mt Zoomer
tabbed by gaz30@hotmail.com

rythm
e -----------------------------------------|
b -----------------------------------------|
g -----------------------------------------|
d ---------------------5--5-5----5--5-5----|
a -7--7-7-5--7--7-7-5--3--3-3-5--3--3-3-5--|
e -5--5-5-3--5--5-5-3---------3---------3--|

lead (enters around 1 min)

e -5-8-7--5-8-7--3-5-3---------|
b -5-5-5--5-5-5--5-5-5--5-3----|
g -----------------------------|
d -----------------------------|
a -----------------------------|
e -----------------------------|
[ Tab from: http://www.guitartabs.cc/tabs/w/wolf_parade/fine_young_cannibals_tab.html ]
lead pt 2
e ------------------|
b ------------------|
g -9h10p9---5h7-----|
d ------------------|
a ------------------|
e ------------------|

chorus (all this time ...)
e --------5--5--5--5-|
b --------5--5--5--5-|
g -5-----------------|
d -5--5--------------|
a -3--5--------------|
e ----3--------------|

distorted riff at around 4:00
e -------------------|
b -------------------|
g -9-9---------------|
d -9-9-9-9-10-10-7-5-|
a -7-7-9-9-10-10-7-5-|
e -----7-7-8--8--5-3-|

then at around 4:30

e ---5-------3-------|
b -----3-5-------3-5-|
g -5-------5---5-----|
d -------------------|
a -------------------|
e -------------------|

this and the other two lead parts from earlier
play until the end of the song
Comments