Wizo - Quadret Im Kreis Chords & Tabs

 

Quadret Im Kreis Chords & Tabs

Wizo Chords & Tabs

Version: 1 Type: Tab 0 ratings
1 star 2 stars 3 stars 4 stars 5 stars
comments

Quadret Im Kreis Tab

-------------------------------------------------------------------------------
			     Quadret Im Kreis - wizo
-------------------------------------------------------------------------------
Tabbed by: Toby Irwin aka mr_dingdong
Email:mr_dingdong@hotmail.com
this isnt the whole song, sorry bout that but its most of it.
[ Tab from: http://www.guitartabs.cc/tabs/w/wizo/quadret_im_kreis_tab.html ]
Tuning:normal
                             intro
      4x           4x          4x         4x         4x        4x 
e|-----------|------------|----------|----------|---------|---------|
B|-----------|------------|----------|----------|---------|---------|
G|-----------|------------|----------|----------|---------|---------|
D|------3----|-----7------|------7---|-----5----|-----3---|-----2---|
A|----5------|---5--------|----3-----|---3------|---1-----|---1-----|
E|-----------|------------|----------|----------|---------|---------|
                      
      4x       2x        2x  
e|---------|---------|----------|
B|---------|---------|----------|
G|---------|---------|----------|   
D|----2----|-----5---|-----5----|
A|--0------|---0-----|---4------|
E|---------|---------|----------|

     8x          8x            8x          4x         2x            2x
e|----------|-----------|------------|-----------|------------|----------|
B|----------|-----------|------------|-----------|------------|----------|
G|----------|-----------|------------|-----------|------------|----------|
D|-----3----|------5----|-------3----|-------2---|-------5----|------5---|2x
A|---5------|----3------|-----1------|-----0-----|-----0------|-----4----|
E|----------|-----------|------------|-----------|------------|----------|


well thats all i could scribe, im 99% sure that bits right.
Comments