Wizo - Gemein Chords & Tabs

 

Gemein Chords & Tabs

Wizo Chords & Tabs

Version: 2 Type: Bass Tab 0 ratings
1 star 2 stars 3 stars 4 stars 5 stars
comments

Gemein Bass Tab

--------------------
Gemein / wizo
--------------------

tabbed by carlos pino

    verse
G]--------------------------------------------------------------- x3
D]---------------------------------------------------------------
A]---------------------------------------------------------------
E]-4/5--5-5-5--4-5------------------------------------------

G]---------------------------------------------------------------
D]---------------------------------------------------------------
A]---------------------------------------------------------------
E]-5-5-5-5--3-3-3-3--2-2-2-1-0-------------------------
[ Tab from: http://www.guitartabs.cc/tabs/w/wizo/gemein_btab_ver_2.html ]
                             x2
G]---------------------------------------------------------------
D]---------------------------------------------------------------
A]---------------------------------------------------------------
E]-5-5-5-5-5-5-5--4/5--5-5-5-5--3-3-3-3--2-2-2-2--1-1-1-1-0-0-0-0-0-0-0-0-0

verse

    chorus
G]---------------------------------------------------------------
D]---------------------------------------------------------------
A]-----------------5>-------------------5>--------------------
E]-0>--5>--3>-------0>--5>--3>--------0>--------------

G]---------------------------------------------------------------
D]---------------------------------------------------------------
A]------------5>-------------------5>-------------------------
E]-5>--3>--------0>--5>--3>-------0-1--5/6------------

verse
chorus x2

   outro
G]---------------------------------------------------------------  repeat
D]---------------------------------------------------------------
A]-1/2--2-2-2------------------------------------------------
E]----------------3-1------------------------------------------

Comments