Without Remorse - I Dont Know Chords & Tabs

 

I Dont Know Chords & Tabs

Without Remorse Chords & Tabs

Version: 1 Type: Tab 0 ratings
1 star 2 stars 3 stars 4 stars 5 stars
comments

I Dont Know Tab

#----------------------------------PLEASE NOTE--------------------------------#
#This file is the author's own work and represents their interpretation of the#
#song. You may only use this file for private study, scholarship, or research.#
#-----------------------------------------------------------------------------#
#-- File created with Instab - http://www.pconline.com/~smcarey/instab.html --#
#-----------------------------------------------------------------------------#

Author/Artist: Without Remorse
Title: I Dont Know
Album: Without Remorse
Transcribed by: Jon
hey you out there, come look at this riff i made!!! it aint bad u gotta say! anyways, play around with the rhythm, and check out the band and their mp3's at www.rockstuff.ndo.co.uk
[ Tab from: http://www.guitartabs.cc/tabs/w/without_remorse/i_dont_know_tab.html ]
-------------------------------------------5----------------------------------
-------5--5--------5--5--------5--5--5--5-----5-------------------------------
-7--7--------7--7--------7--7---------7--7--7--7------------------------------
--7--7--7--7--7--7--7--7--7--7--7--7------------------------------------------
------------------------------------------------------------------------------
------------------------------------------------------------------------------
 intro (x2)                                                                   

------------------------------------------------------------------------------
------------------------------------------------------------------------------
------------------------------------------------------------------------------
-7--8-8--10-10--8-8-----------------------------------------------------------
-7--8-8--10-10--8-8-----------------------------------------------------------
-5--6-6--8--8---6-6-----------------------------------------------------------
 main riff (x4)                                                               

Comments