Within Temptation - Ice Queen Chords & Tabs

 

Ice Queen Chords & Tabs

Within Temptation Chords & Tabs

Version: 6 Type: Tab 0 ratings
1 star 2 stars 3 stars 4 stars 5 stars
comments

Ice Queen Tab

   
WITHIN TEMPTATION - ICE QUEEN
		From the album Mother Earth
		August 2001

Transcription done by: Sven Deckers
Listen the song for an accurate striking rhythm!
For questions, comments, corrections etc. please contact me at sven_deckers@hotmail.com

Check out the official Within Temptation Website at http://www.within-temptation.com

() - palm mute		^ - bend 1 step 	h - hammer on
[] - little feedback	p - pull off		s - slide

Within Temptation - Ice Queen

Tune to C# (C#,F#,B,E,G#,C#)

Intro


Riff 1
|------------------------------------------------------
|------------------------------------------------------
|------------------------------------------------------
|--4-4-4---------------------4-4-4---------------------
|--2-2-2--5-5--5-5--5-5-5-5--2-2-2--2-2--2-2--2-2-2-2--
|---------3-3--3-3--3-3-3-3---------0-0--0-0--0-0-0-0--
|
|------------------------------------------------------
|------------------------------------------------------
|------------------------------------------------------
|--4-4-4---------------------7-7-7--6-6--6-6--6-6-6-6--
|--2-2-2--5-5--5-5--5-5-5-5--5-5-5--4-4--4-4--4-4-4-4--
|---------3-3--3-3--3-3-3-3----------------------------

Ends in
|----------------------------------------------------
|----------------------------------------------------
|----------------------------------------------------
|--7-7--7--7-7--7-7--7-7-7-7--7-7--7--7-7--7-7--7-6--
|--5-5--5--5-5--5-5--5-5-5-5--5-5--5--5-5--5-5--5-4--
|----------------------------------------------------


Riff 2
|--------------------------------------------------------
|--------------------------------------------------------
|--------------------------------------------------------
|--------------------------------------------------------
|--2-2-2----------------5-5-5----------------------------
|---------3-3--3-3--3----------(3s5)-(5)-(5)--(5)-(5)-5--
|
|--------------------------------------------------------
|--------------------------------------------------------
|--------------------------------------------------------
|------------------------------2s4--4--4-----------------
|--2-2-2----------------5-5-5----------------------------
|---------3-3--3-3--3------------------------------------

[ Tab from: http://www.guitartabs.cc/tabs/w/within_temptation/ice_queen_tab_ver_6.html ]
Riff 3
|-------------------------------------------------------------------
|-------------------------------------------------------------------
|-------------------------------------------------------------------
|----------9-----------------4-----------------9-----------------4--
|----------7-----------------2-----------------7-----------------2--
|--(0)-(0)----(0)(0)-(0)-(0)----(0)(0)-(0)-(0)----(0)(0)-(0)-(0)----
|
|-------------------------------------------------------------------
|-------------------------------------------------------------------
|-------------------------------------------------------------------
|----------9-----------------4--------7-7-7-------------------------
|----------7-----------------2--------5-5-5--7-7--7-7--7-7-7-7------
|--(0)-(0)----(0)(0)-(0)-(0)---(0)(0)--------5-5--5-5--5-5-5-5------
|
| /Second time instead play   --------------------------------------
| /as ending		      --------------------------------------
			      --------------------------------------
			      --------------------------------------
			      -5--------------------------------7---
			      -3--------------------------------5---


Repeat Riff 2

Intermezzo

Repeat Riff 1
  but end in
|-------------------------
|-------------------------
|-------------------------
|--7-7--7--7-7--7-7--7-6--
|--5-5--5--5-5--5-5--5-4--
|-------------------------


Repeat Riff 2

Repeat Riff 3


Riff 4
|------------------------------------------------------
|------------------------------------------------------
|------------------------------------------------------
|------------------------------------------------------
|--5-5-5--5-5--5-5--5-5-5-5--2-2-2--2-2--2-2--2-2-2-2--
|--3-3-3--3-3--3-3--3-3-3-3--0-0-0--0-0--0-0--0-0-0-0--
|
|------------------------------------------------------
|------------------------------------------------------
|------------------------------------------------------
|--4-4-4--4-4--4-4--4-4-4-4--2-2-2--2-2--2-2--2-2-2-2--
|--2-2-2--2-2--2-2--2-2-2-2--0-0-0--0-0--0-0--0-0-0-0--
|------------------------------------------------------
|
|------------------------------------------------------
|------------------------------------------------------
|------------------------------------------------------
|----------------------------7-7-7--6-6--6-6--6-6-6-6--
|--5-5-5--5-5--5-5--5-5-5-5--5-5-5--4-4--4-4--4-4-4-4--
|--3-3-3--3-3--3-3--3-3-3-3----------------------------
|
|------------------------------------------------------
|------------------------------------------------------
|------------------------------------------------------
|--4-4-4--4-4--4-4--4-4-4-4--4-4-4--4-4--4-4--4-4-4-4--
|--2-2-2--2-2--2-2--2-2-2-2--2-2-2--2-2--2-2--2-2-2-2--
|------------------------------------------------------


Outro
Comments