With Broken Wings - A Beautiful Tragedy Chords & Tabs

 

A Beautiful Tragedy Chords & Tabs

With Broken Wings Chords & Tabs

Version: 1 Type: Tab

A Beautiful Tragedy Tab

Artist: With Broken Wings  
Title : A Beautiful Tragedy  
Album : Tonight Is The Night My Heart Stops 

tabbed by:jan carlo "ponga" nacion 
e-mail:ponga_8@yahoo.com

standard tuning

legend:
.-palm mute
~-vibrato

intro:
e|-----------------------------|
B|-----------------------------|
G|--8---------------11----10---|
D|--8----9----11----11----11---|
A|--6----9----11----9-----8----|
E|-------7----9----------------|(2x)


pre verse
(basic strumming)
e|----------------------------|
B|----------------------------|
G|--8---------------11--10----|
D|--8----9----11----11--11----|
A|--6----9----11----9---8-----|
E|-------7----9---------------|(2x)
(Tragedy!)


verse 1:
e|---------------------------------------------------------------------|
B|---------------------------------------------------------------------|
G|--8--8-------------------------------------11--11--------10--10------|
D|--8--8(14x)----9--9---------11--11---------11--11(8x)----11--11(8x)--|
A|--6--6---------9--9(14x)----11--11(14x)----9---9---------8---8-------|
E|---------------7--7---------9---9------------------------------------|(2x)
       .	    .             .		 .	       .	


chorus(scream):
(basic strumming)
e|----------------------------|
B|----------------------------|
G|------------------11--10----|
D|--9----11----8----11--11----|
A|--9----11----8----9---8-----|
E|--7----9-----6--------------|(2x)

[ Tab from: http://www.guitartabs.cc/tabs/w/with_broken_wings/a_beautiful_tragedy_tab.html ]
verse 2:
e|---------------------------------------------------------------------|
B|---------------------------------------------------------------------|
G|--8--8-------------------------------------11--11--------10--10------|
D|--8--8(14x)----9--9---------11--11---------11--11(8x)----11--11(8x)--|
A|--6--6---------9--9(14x)----11--11(14x)----9---9---------8---8-------|
E|---------------7--7---------9---9------------------------------------|(2x)
       .	    .             .		 .	       .	


chorus:
(basic strumming)
e|----------------------------|
B|----------------------------|
G|------------------11--10----|
D|--9----11----8----11--11----|
A|--9----11----8----9---8-----|
E|--7----9-----6--------------|(2x)



instrumental part:
e|----------------------------|
B|----------------------------|
G|------------------11--10----|
D|--9----11----8----11--11----|
A|--9----11----8----9---8-----|
E|--7----9-----6--------------|(2x)


e|-----------------------------------------------|
B|-----------------------------------------------|
G|-----------------------------------------------|
D|--9--9----11-11----8--8----13--13--------------|
A|--9--9----11-11----8--8----13--13----13--13----|
E|--7--7----9--9-----6--6----11--11----10--10----|
       .       .	.	 .	   .

e|-------------------------------------|
B|-------------------------------------|
G|-------------------------------------|
D|--9--9----11-11----8--8----13--------|
A|--9--9----11-11----8--8----13---13---|
E|--7--7----9--9-----6--6----11---10---|
       .       .	.		   


chorus(outro):
(basic strumming)
e|----------------------------|
B|----------------------------|
G|------------------11--10----|
D|--9----11----8----11--11----|
A|--9----11----8----9---8-----|
E|--7----9-----6--------------|

e|--------------------------------|
B|--------------------------------|
G|------------------11--10--------|
D|--9----11----8----11--11---9~~--|
A|--9----11----8----9---8----9~~--|
E|--7----9-----6-------------7~~--|