Witchery - The Guillotine Chords & Tabs

 

The Guillotine Chords & Tabs

Witchery Chords & Tabs

Version: 1 Type: Tab 0 ratings
1 star 2 stars 3 stars 4 stars 5 stars
comments

The Guillotine Tab

WITCHERY - The guillotine


From the Necropolis Recs album 'DEAD, HOT & READY'
Music: Jensen
Lyrics: Jensen

TABBED BY HARIS DURAKOVIC (THE FOREVERLORN) for RHYTHM GUITAR



Intro riff (1)
|---------------------------------------------------|
|---------------------------------------------------|
|---------------------------------------------------|
|---------------------------------------------------|
|---------------------------------------------------|
|-0-0h2h3-3p2p0-3h5h6-6p5p0-0h2h3-3p0-6p3-3-5p3-6p5-|


(2)
|---------------------------------------------------|
|---------------------------------------------------|
|---------------------------------------------------|
|---------------------------------------------------|
|---------------------------------------------------|
|-0-0h2h3-3p2p0-6p3-5-6p5p0-0h2h3-3p0-6p3-3-5p3-6p5-|


Riff 1			  afterwards play intro riff 1 and repeat
|------------------------|----------------------------------------|
|------------------------|----------------------------------------|
|-2--------2--------5----|----------------------------------------|
|-2--------2--------5--5-|----------------------------------------|
|-0--------0--------3--5-|----------------------------------------|
|----------------------3-|----------------------------------------|

[ Tab from: http://www.guitartabs.cc/tabs/w/witchery/the_guillotine_tab.html ]
Bridge
|---------------------------|
|---------------------------|
|-7--6--5-------------------|
|-7--6--5-------------------|
|-5--4--3----------5-7p5----|
|----------3-5-5/7-------7~-|

Rhythm on solo 
|----------------------------------------------------------------|
|----------------------------------------------------------------|
|-6----9--6--------6----9--6--------9----12--9--------9----12--9-|
|-6----9--6--------6----9--6--------9----12--9--------9----12--9-|
|-4----7--4--------4----7--4--------7----10--7--------7----10--7-|
|----------------------------------------------------------------|

Riff 2
|---------------------------------------------------------|
|---------------------------------------------------------|
|---------------------------------------------------------|
|---------------------------------------------------------|
|-5----7----5----7------------5----7----5-------------5---|
|---00---00---00---00-7p6p5\3---00---00---00-7p6p5\3----0-|
    ..   ..   ..   ..           ..   ..   ..            .



Bridge 2		   Bridge 3 
|-------------------------|---------------------------------|
|-------------------------|--guitar one plays bridge 2 -----|
|-------------------------|--guitar two - too muddy to hear-|
|-------------------------|---------------------------------|
|-5----5----7~--7p5-------|---------------------------------|
|---00---00---------7p6p5-|---------------------------------|
    ..   .. 


					FIN.
Comments