Witchery - Born In The Night Chords & Tabs

 

Born In The Night Chords & Tabs

Witchery Chords & Tabs

Version: 1 Type: Tab 0 ratings
1 star 2 stars 3 stars 4 stars 5 stars
comments

Born In The Night Tab

   
WITCHERY - Born in the night
from the Necropolis Recs album "RESTLESS & DEAD"
Music: Jensen/Corpse
(Lyrics: Jensen)

TABBED BY HARIS DURAKOVIC (THE FOREVERLORN)



Guitar 1
Beginning riff			     *****
|--------------------------------------------------------------------|
|--------------------------------------------------------------------|
|--------------------------------------------------------------------|
|--------------------------------------------------------------------|
|-7----7----7----7----7----7----7----7----7----7----7----7----7----7-|
|---00---00---00---00---00---00---00---00---00---00---00---00---00---|
    ..   ..   ..   ..   ..   ..   ..   ..   ..   ..   ..   ..   ..


|-------------------------------------------------------------------------|
|-------------------------------------------------------------------------|
|-------------------------------------------------------------------------|
|-------56----------------------56-----------------------6----------------|
|----878------7----8----7----878------7----8----7----878------7----8----7-|
|-00-------00---00---00---00-------00---00---00---00-------00---00---00---|
  ..       ..   ..   ..   ..       ..   ..   ..   ..       ..   ..   .. 


|----------------------------------|
|----------------------------------|
|-----------------------------54---|
|-------56--------------------3254-|
|----878------7----8-----7------32-|
|-00-------00---00---00----00------|
  ..       ..   ..   ..    ..

Riff 1
|-----------------------------------------------------------------------|
|-----------------------------------------------------------------------|
|-54--------------------------------------------------------------------|
|-3254-6----------------------56-----------------------6----------------|
|---32------7----8----7----878------7----8----7----878------7----8----7-|
|--------00---00---00---00-------00---00---00---00-------00---00---00---|
         ..   ..   ..   ..       ..   ..   ..   ..       ..   ..   .. 

|----------------------------|
|----------------------------|
|----------------------------|
|-------56-------------------|
|----878------7----8----7----|
|-00-------00---00---00---00-|
  ..       ..   ..   ..   ..



Riff 2
|-----------------------------------------------------------------------|
|-----------------------------------------------------------------------|
|-----------------------------------------------------------------------|
|-9999999988888888-2-2----2-2----2-2----2-2-9999999988888888-2-2----2-2-|
|-7777777777777777-2-2----2-2----2-2----2-2-7777777777777777-2-2----2-2-|
|------------------0-0----0-0----0-0----0-0------------------0-0----0-0-|

[ Tab from: http://www.guitartabs.cc/tabs/w/witchery/born_in_the_night_tab.html ]
|----------------------------------------------------------------------|
|----------------------------------------------------------------------|
|----------------------------------------------------------------------|
|-2-2----2-2-99999999888888889999999988888888-2-2----2-2----2-2----2-2-|
|-2-2----2-2-77777777777777777777777777777777-2-2----2-2----2-2----2-2-|
|-0-0----0-0----------------------------------0-0----0-0----0-0----0-0-|


Riff 3
|--------------------------------------------|
|--------------------------------------------|
|--------------------------------------------|
|-5-6-8-9-9--5-6-8-9-9--5-6-8-9-9--5-6-8-9-9-|
|-5-6-8-9-9--5-6-8-9-9--5-6-8-9-9--5-6-8-9-9-|
|-3-4-6-7-7--3-4-6-7-7--3-4-6-7-7--3-4-6-7-7-|



Riff 4 					a	  b
|--------------------------------------|---------|---------|
|--------------------------------------|---------|---------|
|--------------------------------------|---------|---------|
|-5----5-------5----56----5----5-------|-22-2-22-|---------|
|-5----5-------5----56----5----5-------|-22-2-22-|-765-----|
|---00---00000---00----00---00---00000-|-00-0-00-|----7653-|
    ..   .....   ..    ..   ..   .....             .......

start playing the ending b while the vocals begin


Riff 5
|------------------------|
|------------------------|
|-2----223----3----33202-|
|-2----223----3----33202-|
|------------------------|
|---22-----22---33-------|
    ..     ..   ..

Riff 6
|-------------------------------|
|-------------------------------|
|-2----------2------------------|
|-2--5--3----2--5--3------------|
|-0--5--3----0--5--3--3~--3~-3~-|
|----3--1-------3--1------------|


Guitar 2
Beginning riff ****
|------------------------------------------------- ------------------- -|
|------------------------------------------------- ------------------- -|
|------------------------------------------------- ------------------- -|
|-------------------------------------------56---- rest is the same as -|
|-87810----10----10----10----10----10----878------ guitar 1 ---------- -|
|-------00----00----00----00----00----00---------- ------------------- -|
        ..    ..    ..    ..    ..    ..



Riff 1 same as guitar 1

Riff 2
|------------------------------------------------------------------|
|-12121212121212121111111111111111---------------------------------|
|------------------------------------------------------------------|
|--9-9-9-9-9-9-9-9-8-8-8-8-8-8-8-8-2-2-----2-2-----2-2-----2-2-----|
|----------------------------------2-2-----2-2-----2-2-----2-2-----|
|----------------------------------0-0-3h4-0-0-3h4-0-0-3h4-0-0-3h4-|


|------------------------------------------------------------------|
|-12121212121212121111111111111111---------------------------------|
|------------------------------------------------------------------|
|--9-9-9-9-9-9-9-9-8-8-8-8-8-8-8-8-2-2-----2-2-----2-2-----2-2-----|
|----------------------------------2-2-----2-2-----2-2-----2-2-----|
|----------------------------------0-0-3h4-0-0-3h4-0-0-3h4-0-0-3h4-|


|------------------------------------------------------------------|
|-1212121212121212111111111515111112121212121212121111111115151111-|
|------------------------------------------------------------------|
|--9-9-9-9-9-9-9-9-8-8-8-81212-8-8-9-9-9-9-9-9-9-9-8-8-8-81212-8-8-|
|------------------------------------------------------------------|
|------------------------------------------------------------------|



Riff 3,4 & 5 are the same as guitar 1


Solo missed!
Comments