Wishful Thinking - Useless Chords & Tabs

 

Useless Chords & Tabs

Wishful Thinking Chords & Tabs

Version: 1 Type: Bass Tab

Useless Bass Tab

   
Song: Useless
Artist: Wishful Thinking
Tabber: David


b: bend
r: release
//: slide from infinity
x: percussive note; no pitch


G -------------------------------------------------00000000---------|
D ---------------------------------------------2233--------34555555-|
A -3333333333333333----------------333333333333---------------------|
E -----------------1111111111111111---------------------------------|


G --------------------------------------------------|
D --------------------------------------------------|
A -3333333333333333---------------------------------|
E -----------------1111111111111111333333331111xxxx-|


G -------------------------------------------------------0-5-320-----|
D ----------------------------------------------------23--------320--|
A -----------------3333333333333333----------------3---------------3-|
E -3333333311111111----------------3333333311111111------------------|


G ------------------------------------------------------------------|
D -------------------------0----------------------------------------|
A -----------------0-2-3-4-------------------------3333333333333333-|
E -3333333311111111----------0-1-2-3333333311111111-----------------|


G -------------------------------------------------00000000---------|
D ---------------------------------------------2233--------00331122-|
A -3333333333333333----------------333333333333---------------------|
E -----------------1111111111111111---------------------------------|


G --------------------------------------------------|
D --------------------------------------------------|
A -3333333333333333---------------------------------|
E -----------------1111111111111111333333331111xxxx-|

[ Tab from: http://www.guitartabs.cc/tabs/w/wishful_thinking/useless_btab.html ]
G -------------------------------------------------------0-5-320-----|
D ----------------------------------------------------23--------320--|
A -----------------3333333333333333----------------3---------------3-|
E -3333333311111111----------------3333333311111111------------------|


G ------------------------------------------------------------------|
D -------------------------0----------------------------------------|
A -----------------0-2-3-4-------------------------3333333333333333-|
E -3333333311111111----------0-1-2-3333333311111111-----------------|


G --------7-5-4--------------------------14-1211---------|
D -0-0-457------77-5-5-5405-42024200-0/12-------1412-----|
A --------------------------------------------------1212-|
E -------------------------------------------------------|


G --------------------------------------------------------|
D ----12r11b12r11b12--1211--------------------------------|
A -10---------------10----1210r9b10r9---------------------|
E -----------------------------------10-10-10-10-10-10-10-|


G -------------------------------------------//12121112-|
D ------------------------------------------------------|
A --------------------5-5-5-5-5-5-500-------------------|
E -55-3-3-3-3-3-3-3-3----------------3--3-3-3-----------|


G -------------------------------------------------0-5-320-----|
D ----------------------------------------------23--------320--|
A -33333333--------33333333-------------------3--------------3-|
E ---------11111111-------------------11111111-----------------|
				   Oi! Oi! Oi!

G ------------------------------------------------------------------|
D -------------------------0----------------------------------------|
A -----------------0-2-3-4-------------------------3333333333333333-|
E -3333333311111111----------0-1-2-3333333311111111-----------------|


G -----------------------------------------------------------|
D -----------------------------------------------------------|
A -----------------3333333333333333------------------------3-|
E -3333333311111111----------------3-3-3-3-3-3-1-1-1-1-1-1---|