Wishful Thinking - I Dont Need You Chords & Tabs

 

I Dont Need You Chords & Tabs

Wishful Thinking Chords & Tabs

Version: 1 Type: Tab 0 ratings
1 star 2 stars 3 stars 4 stars 5 stars
comments

I Dont Need You Tab

Wishful thinking is an Aussie band who absolutely rock. They have been on the radio and
on rage, and are on their way up. www.wishfulthinking.com.au is their web site.
----------------------------------------------------------------------------
                         Wishful Thinking- I don't need you
----------------------------------------------------------------------------
WOO!!!!! The first Wishful Thinking tab. Took a while, but near enough to perfect.
Band: Wishful thinking
Song: I don't need you
Album: Standing still
Tuning: Drop D

Tabbed by Aaron Kuoppala

********* = palm mute

Verse 1:
    I        see  all        your  dreams, and i'm not in them
-------------------------------------------------------------------
-------------------------------------------------------------------
--------------------------------5-5-5-5-5---5-5-5-5-5-5-5----------
----2-2-2-2-2---3-3-3-3-3-3-3---5-5-5-5-5---5-5-5-5-5-5-5----------
----2-2-2-2-2---3-3-3-3-3-3-3---3-3-3-3-3---3-3-3-3-3-3-3----------
----2-2-2-2-2---3-3-3-3-3-3-3--------------------------------------

      Fears and      fantacies                 a life without me  
-------------------------------------------------------------------
-------------------------------------------------------------------
--------------------------------5-5-5-5-5---5-5-5-5-5-5-5----------
----2-2-2-2-2---3-3-3-3-3-3-3---5-5-5-5-5---5-5-5-5-5-5-5----------
----2-2-2-2-2---3-3-3-3-3-3-3---3-3-3-3-3---3-3-3-3-3-3-3----------
----2-2-2-2-2---3-3-3-3-3-3-3--------------------------------------

    Cuts      so  deep    in        me,     to think about it   
-------------------------------------------------------------------
-------------------------------------------------------------------
--------------------------------5-5-5-5-5---5-5-5-5-5-5-5----------
----2-2-2-2-2---3-3-3-3-3-3-3---5-5-5-5-5---5-5-5-5-5-5-5----------
----2-2-2-2-2---3-3-3-3-3-3-3---3-3-3-3-3---3-3-3-3-3-3-3----------
----2-2-2-2-2---3-3-3-3-3-3-3--------------------------------------

    caused me   to concieve,      these thoughts about us.
---------------------------------------------------------------
---------------------------------------------------------------
---------------------------------------------------------------
----2-2-2-2-2---3-3-3-3-3-3-3-----5----------------------------
----2-2-2-2-2---3-3-3-3-3-3-3-----5----------------------------
----2-2-2-2-2---3-3-3-3-3-3-3-----5----------------------------
hold...................................

Chorus:
    I don't need you,    (I'm fine without you, get out of my face)
-----------------------------------------------------------------
-----------------------------------------------------------------
-----------------------------------------------------------------
----3-3-3-3-3-3-3-3-3-3-3----7-7-------------------5-5-----------
----3-3-3-3-3-3-3-3-3-3-3----7-7-------------------5-5-----------
----3-3-3-3-3-3-3-3-3-3-3----7-7-------------------5-5-----------

   I can't trust you      (what are you trying to do to me) 
-----------------------------------------------------------------
-----------------------------------------------------------------
-----------------------------------------------------------------
----3-3-3-3-3-3-3-3-3-3-3----7-7-------------5-5-----------------
----3-3-3-3-3-3-3-3-3-3-3----7-7-------------5-5-----------------
----3-3-3-3-3-3-3-3-3-3-3----7-7-------------5-5-----------------

    I won't miss  you    (Cause I lie to myself, every single time
-----------------------------------------------------------------
-----------------------------------------------------------------
-----------------------------------------------------------------
----3-3-3-3-3-3-3-3-3-3-3----7-7-------------------5-5-----------
----3-3-3-3-3-3-3-3-3-3-3----7-7-------------------5-5-----------
----3-3-3-3-3-3-3-3-3-3-3----7-7-------------------5-5-----------

 To make it all feel    fine.
------------------------------------------------------------
------------------------------------------------------------
--------------------- 5-5-5-5-5-5-5-5-----------------------
----3-3-3-----2-----5-5-5-5-5-5-5-5-------------------------
----3-3-3-----2-----3-3-3-3-3-3-3-3-------------------------
----3-3-3-----2---------------------------------------------

     I'll                    Sit in my room      all on my own
----------------------------------------------------------
----------------------------------------------------------
----------------------------------------------------------
----5-5-5-5-5-5-5-5-5-5-5-5----7-7-7-7-7-7----3-3-3-3-3-3-
----5-5-5-5-5-5-5-5-5-5-5-5----7-7-7-7-7-7----3-3-3-3-3-3-
----5-5-5-5-5-5-5-5-5-5-5-5----7-7-7-7-7-7----3-3-3-3-3-3-

And   I'll                     make sure you are left on your own
----------------------------------------------------------
----------------------------------------------------------
----------------------------------------------------------
----5-5-5-5-5-5-5-5-5-5-5-5----7-7-7-7-7-7----3-3-3-3-3-3-
----5-5-5-5-5-5-5-5-5-5-5-5----7-7-7-7-7-7----3-3-3-3-3-3-
----5-5-5-5-5-5-5-5-5-5-5-5----7-7-7-7-7-7----3-3-3-3-3-3-

    Coz  You                  Never cared nothing about me
----------------------------------------------------------
----------------------------------------------------------
----------------------------------------------------------
----5-5-5-5-5-5-5-5-5-5-5-5----7-7-7-7-7-7----3-3-3-3-3-3-
----5-5-5-5-5-5-5-5-5-5-5-5----7-7-7-7-7-7----3-3-3-3-3-3-
----5-5-5-5-5-5-5-5-5-5-5-5----7-7-7-7-7-7----3-3-3-3-3-3-

    So Dream of me             coz you'll never see me again
----------------------------------------------------------
----------------------------------------------------------
----------------------------------------------------------
----5-5-5-5-5-5-5-5-5-5-5-5----7-7-7-7-7-7----3-3-3-3-3-3-
----5-5-5-5-5-5-5-5-5-5-5-5----7-7-7-7-7-7----3-3-3-3-3-3-
----5-5-5-5-5-5-5-5-5-5-5-5----7-7-7-7-7-7----3-3-3-3-3-3-

Chorus:
    I don't need you,   (I'm fine without you, get out of my face)
-----------------------------------------------------------------
-----------------------------------------------------------------
-----------------------------------------------------------------
----3-3-3-3-3-3-3-3-3-3-3----7-7-------------------5-5-----------
----3-3-3-3-3-3-3-3-3-3-3----7-7-------------------5-5-----------
----3-3-3-3-3-3-3-3-3-3-3----7-7-------------------5-5-----------
[ Tab from: http://www.guitartabs.cc/tabs/w/wishful_thinking/i_dont_need_you_tab.html ]
     I can't trust you   (what are you trying to do to me) 
-----------------------------------------------------------------
-----------------------------------------------------------------
-----------------------------------------------------------------
----3-3-3-3-3-3-3-3-3-3-3----7-7-------------5-5-----------------
----3-3-3-3-3-3-3-3-3-3-3----7-7-------------5-5-----------------
----3-3-3-3-3-3-3-3-3-3-3----7-7-------------5-5-----------------

    I won't  miss you   (Cause I lie to myself, every single time
-----------------------------------------------------------------
-----------------------------------------------------------------
-----------------------------------------------------------------
----3-3-3-3-3-3-3-3-3-3-3----7-7-------------------5-5-----------
----3-3-3-3-3-3-3-3-3-3-3----7-7-------------------5-5-----------
----3-3-3-3-3-3-3-3-3-3-3----7-7-------------------5-5-----------

 To make it all feel    fine).
------------------------------------------------------------
------------------------------------------------------------
--------------------- 5-5-5-5-5-5-5-5-----------------------
----3-3-3-----2-----5-5-5-5-5-5-5-5-------------------------
----3-3-3-----2-----3-3-3-3-3-3-3-3-------------------------
----3-3-3-----2---------------------------------------------

Bridge:
    Is    it            to         to  late   to
---------------------------------------------------------
---------------------------------------------------------
---------------------------------------------------------
----0-0-0-0-0-0-0-0-0-0-0-0----2---3-3-3-3-3-3-3-3-------
----0-0-0-0-0-0-0-0-0-0-0-0----2---3-3-3-3-3-3-3-3-------
----0-0-0-0-0-0-0-0-0-0-0-0----2---3-3-3-3-3-3-3-3-------

      To       find       meaning  in  all  of     this
----------------------------------------------------------------
----------------------------------------------------------------
----------------------------------------------------------------
----0-0-0-0-0-0-0-0-0-0-0-0----2---3-3-3-3-3-3-3-3--------------
----0-0-0-0-0-0-0-0-0-0-0-0----2---3-3-3-3-3-3-3-3--------------
----0-0-0-0-0-0-0-0-0-0-0-0----2---3-3-3-3-3-3-3-3--------------

        I'll     follow             behind   you
----------------------------------------------------------------
----------------------------------------------------------------
----------------------------------------------------------------
----0-0-0-0-0-0-0-0-0-0-0-0----2---3-3-3-3-3-3-3-3--------------
----0-0-0-0-0-0-0-0-0-0-0-0----2---3-3-3-3-3-3-3-3--------------
----0-0-0-0-0-0-0-0-0-0-0-0----2---3-3-3-3-3-3-3-3--------------

        My  fear   is         taking      hold    of    me
-------------------------------------------------------------------------
-------------------------------------------------------------------------
-------------------------------------------------------------------------
----0-0-0-0-0-0-0-0-0-0-0-0----2-2-2-2-2-2-2-2-----3-3-3-3-3-3-3-3-------
----0-0-0-0-0-0-0-0-0-0-0-0----2-2-2-2-2-2-2-2-----3-3-3-3-3-3-3-3-------
----0-0-0-0-0-0-0-0-0-0-0-0----2-2-2-2-2-2-2-2-----3-3-3-3-3-3-3-3-------


-------------------------------------------------------------------
-------------------------------------------------------------------
------------------------------------5-5-5-5-5---5-5-5-5-5-5-5------
----2-2-2-2-2---3-3-3-3-3-3-3---5-5-5-5-5---5-5-5-5-5-5-5----------
----2-2-2-2-2---3-3-3-3-3-3-3---3-3-3-3-3---3-3-3-3-3-3-3----------
----2-2-2-2-2---3-3-3-3-3-3-3--------------------------------------


-------------------------------------------------------------------
-------------------------------------------------------------------
------------------------------------5-5-5-5-5---5-5-5-5-5-5-5------
----2-2-2-2-2---3-3-3-3-3-3-3---5-5-5-5-5---5-5-5-5-5-5-5----------
----2-2-2-2-2---3-3-3-3-3-3-3---3-3-3-3-3---3-3-3-3-3-3-3----------
----2-2-2-2-2---3-3-3-3-3-3-3--------------------------------------

                         ********
----------------------------------------------------------------------------
----------------------------------------------------------------------------
----9-9-9-9-9--9-9-9-9-9---------------------------5-5-5-5-5--5-5-5-5-5-5-5-
----9-9-9-9-9--9-9-9-9-9---10-10-10-10-10-10-10----5-5-5-5-5--5-5-5-5-5-5-5-
----7-7-7-7-7--7-7-7-7-7----8--8--8--8--8--8--8----3-3-3-3-3--3-3-3-3-3-3-3-
----------------------------------------------------------------------------


                         ********
-----------------------------------------------------------
-----------------------------------------------------------
----9-9-9-9-9--9-9-9-9-9-----------------------------------
----9-9-9-9-9--9-9-9-9-9---10-10-10-10-10-10-10------------
----7-7-7-7-7--7-7-7-7-7----8--8--8---8--8--8---8----------
-----------------------------------------------------------


Chorus:
  I don't need you, (I'm fine without you, get out of my face)
------------------------------------------------------
------------------------------------------------------
------------------------------------------------------
----3--------------7--------------------5-------------
----3--------------7--------------------5-------------
----3--------------7--------------------5-------------

     I can't trust you  (what are you trying to do to me) 
------------------------------------------------------
------------------------------------------------------
------------------------------------------------------
----3--------------7---------------5------------------
----3--------------7---------------5------------------
----3--------------7---------------5------------------

    I   don't   need   you  (I'm fine without you, get out of my face)
----------------------------------------------------------------------
----------------------------------------------------------------------
----------------------------------------------------------------------
----3-3-3-3-3-3-3-3-3-3-3----7-7-------------------5-5----------------
----3-3-3-3-3-3-3-3-3-3-3----7-7-------------------5-5----------------
----3-3-3-3-3-3-3-3-3-3-3----7-7-------------------5-5----------------


  I    won't     miss     you    (Cause I lie to myself, every single time
----------------------------------------------------------------------
----------------------------------------------------------------------
----------------------------------------------------------------------
----3-3-3-3-3-3-3-3-3-3-3----7-7-------------------5-5----------------
----3-3-3-3-3-3-3-3-3-3-3----7-7-------------------5-5----------------
----3-3-3-3-3-3-3-3-3-3-3----7-7-------------------5-5----------------

 To make it all feel    fine).
------------------------------------------------------------
------------------------------------------------------------
--------------------5-5-5-5-5-------------------------------
----3-3-3-----2-----5-5-5-5-5-------------------------------
----3-3-3-----2-----3-3-3-3-3-------------------------------
----3-3-3-----2---------------------------------------------

This is a great song, but you'll have to listen closely to the cd to get it right. 
Thanx to the boys of Wishful Thinking for allowing me to do this tab. 
Find me at turn_it_up_42@hotmail.com
Comments