Wiseguys - Start The Commotion Chords & Tabs

 

Start The Commotion Chords & Tabs

Wiseguys Chords & Tabs

Version: 2 Type: Tab 0 ratings
1 star 2 stars 3 stars 4 stars 5 stars
comments

Start The Commotion Tab

my first tab submitted so i hope this is good.
this starts around 35 seconds in to the song:
[ Tab from: http://www.guitartabs.cc/tabs/w/wiseguys/start_the_commotion_tab_ver_2.html ]
E|----------------------|
B|----------------------|
G|----------------------|
D|----------------7/12--|
A|--777--44-999--22pm---|
E|--555--22-777--00pm---|
                  ^this is a little tricky, but after practice, you'll get it
                  ^if you cant get it, just make the 2 a 0.
                  ^palm mute the second strum to make it sound better.
                  ^im not even sure if you slide or not, but it sounds good

         or for those who dont like going all over the guitar:
D|----------444---2/7---|
A|--777--44-222--22-----|
E|--555--22------00-----|
  		  ^use same tips as above

email me at billhoward@krock.com
Comments