Wise Guys - Start The Commotion Chords & Tabs

 

Start The Commotion Chords & Tabs

Wise Guys Chords & Tabs

Version: 1 Type: Tab 0 ratings
1 star 2 stars 3 stars 4 stars 5 stars
comments

Start The Commotion Tab

-------------------------------------------------------------------------------
			     Start the Commotion - Wise Guys
-------------------------------------------------------------------------------

By:adiduz

I came up with this one night, and this is how I play it.
[ Tab from: http://www.guitartabs.cc/tabs/w/wise_guys/start_the_commotion_tab.html ]
e|---------------------------------------------------------------------------|
B|---------------------------------------------------------------------------|
G|---------------------------------------------------------------------------|
D|-------------------x--4-4-4------------------------------------------------|
A|--7-7-7--x-x--4-4--x--2-2-2--x-x--6-6--------------------------------------|
E|--5-5-5--x-x--2-2------------x-x--4-4--------------------------------------|

e|---------------------------------------------------------------------------|
B|---------------------------------------------------------------------------|
G|-------------------x--4-x-4-x-4-x-4-4--------------------------------------|
D|-------------------x--2-x-2-x-2-x-2-2--------------------------------------|
A|--7-7-7--x-x--4-4----------------------------------------------------------|
E|--5-5-5--x-x--2-2----------------------------------------------------------|

This is pretty much it. Repeat alot of times, I guess, or until you get bored with it.

===============================================================================
Comments